Chordie logo

I Spy    Dead Kennedys



-----------------------------------------------------------------------------
				      I Spy
-----------------------------------------------------------------------------

|--------------------------------------------12----------------------|
|--------------------------------------------12-------------| the 12-|s are played in
|--------------------------------------------12----------------------| harmonics
|--------------------------------------------------------------------|
|--------------------------------------------------------------------|
|--0--0--3-5--0--0----0--0--3-5--0--0--------------------------------| this part

|----------------------3-------------|and this part is the bass intro
|----------------------5-------------|except tabbed for guitar
|----------------------4-------------|
|------------------------------------|
|------------------------------------|
|--0--0--3-5--0--0-----0--0--3-5--0--|

|---------------------------------------------------------------|
|---------------------------------------------------------------|they sometimes play
|---------------------------------------------------------------|this or they play
|---------------------------------------------------------------|that
|---------------------------------------------------------------|as the chorus
|--0-0--3-5--0-0--3-5--0-0--3-5-6-6-5-5-------------------------|
the strumming pattern for this is
down up down up


|----------------------------------|
|----------------------------------|
|----------------------------------|
|----------------------------------|
|----------------------------------|
|--0-0--3-5--0-0--3-5--0-0--3-5-6-5|
the strumming pattern for this is
down up down up also except for the last 6 and 5
          which are both down strokes

|-------------------------|
|-------------------------|
|--5---4---9-9-9-9-9~-9---|
|--5---4--:9-9-9-9-9~-9-:-|this is verse one
|--3---2---7-7-7-7-7~-7---|repeated as needed
|-------------------------|

|-----------|
|-----------|
|--5--4--7--|
|--5--4--7--|they play 5 7 7 more then once but i was too lazy to count them
|--3--2--5--|play this the last time they play verse one
|-----------|

|--12--13--12--11--12--13--14--15--16-|
|--12--13--12--11--12--13--14--15--16-| this is the solo play every
|-------------------------------------| note 4 times, i was too lazy to type that out
|-------------------------------------| so for the first note is 12 right? 12-12-12-12
|-------------------------------------|               12 so you would play 12-12-12-12
|-------------------------------------|

this is a pretty cool song, its kinda hard when you play it as fast as in the song


Important: The song above is NOT stored on the Chordie server. The original song is hosted at www.xguitar.com. Chordie works as a search engine and provides on-the-fly formatting. Chordie does not index songs against artists/composers will. To remove this song please click here.

This song is displayed as text-only. Transposing and tuning is only available for chordpro-songs.

Login - add to songbook

Rating click stars to rate

Layout
Accuracy

SHARE PAGE  

You need to log in to post comments