Guitar Tabs, Chords and Lyrics


Where Do Ya Draw the Line    Dead Kennedys



-----------------------------------------------------------------------------
			    Where Do Ya Draw the Line
-----------------------------------------------------------------------------
I just put the power chords here but if you play the whole barre you might
get a sound closer to Ray's(ie trebley).This has a rockabilly feel.
e|---------------------------------------------------------------------------|
B|---------------------------------------------------------------------------|
G|------------5-7-77775------------5-7-77775---------------------------------|
D|-7-77775-7-77775-5-55555-7-77775-------------------------------------------|
A|-7-77773-5-55553-5-55553-5-55553-------------------------------------------|
E|-5-5555-----------------3-3333---------------------------------------------|
play this a few times then
PART 2:
e|---------------------------------------------------------------------------|
B|---------------------------------------------------------------------------|
G|---------------------------------------------------------------------------|
D|-7-77775-7-77775-7-77775-7-------------------------------------------------|
A|-7-77775-7-77775-7-77775-7-------------------------------------------------|
E|-5-55553-5-55553-5-55553-5-------------------------------------------------|
PART 3(11 is eleventh fret, 10 is tenth,12 is twelth):
e|-----------------------------------------------------------------------------------|
B|-----------------------------------------------------------------------------------|
G|-----7119-797-----5799--7119-797-5797----------------------------------------------|
D|-99-----------9-77------99----------9-77--9977791010-99777944-9977791010-----------|
A|----------------------------------------------------9977791010-99777944-9977791010-|
E|----------------------------------------------------7755578-8----77555722-7755578-8|

e|---------------------------------------------------------------------------|
B|---------------------------------------------------------------------------|
G|---------------------------------------------------------------------------|
D|-1211109-1212-11-109-------------------------------------------------------|
A|-1211109-1212-11-109-------------------------------------------------------|
E|-109---8-7-1010-9----8-7---------------------------------------------------|
TO CUT A LONG STORY SHORT straight after part 4 there is another chord
progression but you can work the strumming out(if not find a nirvana song to
play and learn to sing along,you might impress a girl,aaahhhh)these are the
chords: D C D E D C Dx2 then HIGHER G F G A G F G G F G A# A
then the PART 1 shape is played 2 frets higher(beginning on B instead of A)
and the next progression(the oh oh oh oh bit) is
D E F# F# E D Bx3 D


Important: The song above is NOT stored on the Chordie server. The original song is hosted at www.xguitar.com. Chordie works as a search engine and provides on-the-fly formatting. Chordie does not index songs against artists'/composers' will. To remove this song please click here.

This song is displayed as text-only. Transposing and tuning is only available for chordpro-songs.

Login - add to songbook

Rating click stars to rate

Layout
Accuracy

SHARE PAGE  




You need to log in to post comments