Guitar Tabs, Chords and Lyrics


Soup Is Good Food    Dead Kennedys



INTRO
e-----------------------------------------------------------
B-----------------------------------------------------3-5-7-
G-----------2-2---------2---2---5-4-2---6-5-2-----2-4-------
D-----4-3---------(X8)----4---------------------4-----------
A--2------4-------------------------------------------------
E-----------------------------------------------------------

e----5---5--7657657657657652--------------------------------
B--7---7---------------------5-3----------------------------
G--------------------------------4-2-0----------------------
D--------------------------------------2-0------------------
A------------------------------------------2-0--------------
E-----------------------------------------------------------

VERSE
e-----------------------------------------------------------
B-----------------------------------------------------------
G-----------------------------------------------------------
D-----4-3--------------4-3---2-2-4--------(X10)-------------
A--2------4--0-0-2--2------4--------------------------------
E-----------------------------------------------------------

PRE CHORUS
e--5---5-------11---10--------------5---7-------------------
B--5---5-------11---10--------------5---7-------------------
G--6---6-------12---11--------------6---8-----------*LOUD*--
D--7---9-------13---12--------------7---9-----------13-13---
A--7---9-------13---12------(X3)----7---9-----------11-11---
E--5---7-------11---10--------------5---7-----------11-11---

CHORUS
e------------7--7---9---9----10-10-6------------------------
B------------7--7---9---9----10-10-6------------------------
G------------8--8---10--10---11-11-7------------------------
D------------9--9---11--11---12-12-8------------(x3)--------
A------------9--9---11--11---12-12-8------------------------
E------------7--7---9---9----10-10-6------------------------

INTRO
e-----------------------------------------------------------
B-----------------------------------------------------3-5-7-
G-----------2-2---------2---2---5-4-2---6-5-2-----2-4-------
D-----4-3---------(X8)----4---------------------4-----------
A--2------4-------------------------------------------------
E-----------------------------------------------------------
     This part got confusing, so your on your own	
e----5---5--7657657657657652--------------------------------
B--7---7---------------------5-3----------------------------
G--------------------------------4-2-0----------------------
D--------------------------------------2-0------------------
A------------------------------------------2-0--------------
E-----------------------------------------------------------

VERSE
e-----------------------------------------------------------
B-----------------------------------------------------------
G-----------------------------------------------------------
D-----4-3--------------4-3---2-2-4--------(X10)-------------
A--2------4--0-0-2--2------4--------------------------------
E-----------------------------------------------------------

PRE CHORUS
e--5---5-------11---10--------------5---7-------------------
B--5---5-------11---10--------------5---7-------------------
G--6---6-------12---11--------------6---8-----------*LOUD*--
D--7---9-------13---12--------------7---9-----------13-13---
A--7---9-------13---12------(X3)----7---9-----------11-11---
E--5---7-------11---10--------------5---7-----------11-11---

CHORUS
e------------7--7---9---9----10-10-6------------------------
B------------7--7---9---9----10-10-6------------------------
G------------8--8---10--10---11-11-7------------------------
D------------9--9---11--11---12-12-8------------(x3)--------
A------------9--9---11--11---12-12-8------------------------
E------------7--7---9---9----10-10-6------------------------

Solo
???

Fill
e----11---10-------------------------------------------------
B----11---10-------------------------------------------------
G----12---11-------------------------------------------------
D----13---12---(x6)------------------------------------------
A----13---12-------------------------------------------------
E----11---10-------------------------------------------------

Only Bass

VERSE
e-----------------------------------------------------------
B-----------------------------------------------------------
G-----------2-2---------------------------------------------
D-----4-3---------(X8)--------------------------------------
A--2------4-------------------------------------------------
E-----------------------------------------------------------

PRE CHORUS
e--5---7-------11---10--------------5---7-------------------
B--5---7-------11---10--------------5---7-------------------
G--6---8-------12---11--------------6---8-----------*LOUD*--
D--7---9-------13---12--------------7---9-----------13-13---
A--7---9-------13---12------(X8)----7---9-----------11-11---
E--5---7-------11---10--------------5---7-----------11-11---

CHORUS
e------------7--7---9---9----10-10-6------------------------
B------------7--7---9---9----10-10-6------------------------
G------------8--8---10--10---11-11-7------------------------
D------------9--9---11--11---12-12-8--------(x10)-----------
A------------9--9---11--11---12-12-8------------------------
E------------7--7---9---9----10-10-6------------------------

Fill
e----11---10-------------------------------------------------
B----11---10-------------------------------------------------
G----12---11-------------------------------------------------
D----13---12---(x2)------------------------------------------
A----13---12-------------------------------------------------
E----11---10-------------------------------------------------

Outro


Important: The song above is NOT stored on the Chordie server. The original song is hosted at www.xguitar.com. Chordie works as a search engine and provides on-the-fly formatting. Chordie does not index songs against artists'/composers' will. To remove this song please click here.

This song is displayed as text-only. Transposing and tuning is only available for chordpro-songs.

Login - add to songbook

Rating click stars to rate

Layout
Accuracy

SHARE PAGE  




You need to log in to post comments