Guitar Tabs, Chords and Lyrics


This Could Be Anywhere    Dead Kennedys



e|---------------------------------------------------------------------------|
B|---------------------------------------------------------------------------|
G|----------------55----77---------------------------------------------------|
D|-55----55----------------44----44----44----44------------------------------|
A|-------------33----55------------------------------------------------------|
E|----33----33----------------22----22----22----22---------------------------|

play the above part twice then

e|---------------------------------------------------------------------------|
B|---------------------------------------------------------------------------|
G|----------------55----77---------------------------------------------------|
D|-55----55----------------444-44444-444-44444-444-44444-444-4444/5----------|
A|-------------33----55----444-44444-444-44444-444-44444-444-4444/5----------|
E|----33----33-------------222-22222-222-22222-222-22222-222-2222/3----------|

e|-3-333333-333-555-2-222222-2-222222-3-333333-333-555-2-222222--------------|
B|-3-333333-555-777-2-222222-2-222222-3-333333-555-777-2-222222--------------|
G|-4-444444-555-777-3-333333-3-333333-4-444444-555-777-3-333333-77665544-----|
D|-5-555555-555-777-4-444444-4-444444-5-555555-555-777-4-444444--------------|
A|-5-555555-333-555-4-444444-4-444444-5-555555-333-555-4-444444--------------|
E|-3-333333---------2-222222-2-222222-3-333333---------2-222222--------------|

e|-3-333333-333-555-9--9-9-9-9-9-9--9--9-9-9-9-9-9---------------------------|
B|-3-333333-555-777-11-111111111111-11-111111111111--------------------------|
G|-4-444444-555-777-11-111111111111-11-111111111111--------------------------|
D|-5-555555-555-777-11-111111111111-11-111111111111--------------------------|
A|-5-555555-333-555-9--9-9-9-9-9-9--9--9-9-9-9-9-9---------------------------|
E|-3-333333------------------------------------------------------------------|



Important: The song above is NOT stored on the Chordie server. The original song is hosted at www.xguitar.com. Chordie works as a search engine and provides on-the-fly formatting. Chordie does not index songs against artists'/composers' will. To remove this song please click here.

This song is displayed as text-only. Transposing and tuning is only available for chordpro-songs.

Login - add to songbook

Rating click stars to rate

Layout
Accuracy

SHARE PAGE  




You need to log in to post comments