Guitar Tabs, Chords and Lyrics


Forward to Death    Dead Kennedys



Dead Kennedys - foward to death
Submitted By: Rhys
EMail: deliriousmouse@hotmail.com


b - Bend

Intro x1
e|-00-00-00-00--0-2-4-5--5-4-5-4--|
B|-00-00-00-00--0-2-4-5--7-6-7-6--|
G|-11-11-11-11--1-3-5-6--7-6-7-6--|
D|-22-22-22-22--2-4-6-7--7-6-7-6--|
A|-22-22-22-22--2-4-6-7--5-4-5-4--|
E|--------------0-2-4-5-----------|

Verse x3
e|-7-7--7-7--9--9--9--9---|
B|-9-9--7-7--9--9--9--9---|
G|-9-9--8-8--10-10-10-10--|
D|-9-9--9-9--11-11-11-11--|
A|-7-7--9-9--11-11-11-11--|
E|------7-7--9--9--9--9---|

Pre Chorus x2
e|-5-5-5-5--4-4-4-4--|
B|-5-5-5-5--4-4-4-4--|
G|-6-6-6-6--5-5-5-5--|
D|-7-7-7-7--6-6-6-6--|
A|-7-7-7-7--6-6-6-6--|
E|-5-5-5-5--4-4-4-4--|

Chorus x                         x1
e|-4-4--2-2--0-0-0-0--2-2--4-4-|-10--9---10--9---|
B|-4-4--2-2--0-0-0-0--4-4--6-6-|-10--9---10--9---|
G|-5-5--3-3--1-1-1-1--4-4--6-6-|-11--10--11--10--|
D|-6-6--4-4--2-2-2-2--4-4--6-6-|-12--11--12--11--|
A|-6-6--4-4--2-2-2-2--2-2--4-4-|-12--11--12--11--|
E|-4-4--2-2--0-0-0-0-----------|-10--9---10--9---|

Bridge
e|---5-------7--------9--------7---|
B|---5-------7--------9--------7---|
G|---6b------8b-------10b------8b--|
D|-7-------9-------11--------9-----|
A|-7-------9-------11--------9-----|
E|-5-------7-------9---------7-----|

Outro Tremolo Pick these notes
e|-9-7-5-7-------------------------------------------------------------------|
B|-9-9-5-7-------------------------------------------------------------------|
G|---------------------------------------------------------------------------|
D|---------------------------------------------------------------------------|
A|---------------------------------------------------------------------------|


Important: The song above is NOT stored on the Chordie server. The original song is hosted at www.xguitar.com. Chordie works as a search engine and provides on-the-fly formatting. Chordie does not index songs against artists'/composers' will. To remove this song please click here.

This song is displayed as text-only. Transposing and tuning is only available for chordpro-songs.

Login - add to songbook

Rating click stars to rate

Layout
Accuracy

SHARE PAGE  




You need to log in to post comments