Guitar Tabs, Chords and Lyrics


Funland at the Beach    Dead Kennedys



intro:
e-|--------------------------------------------------------
B-|--------------------------------------------------------
G-|0-0-0-0-0-0-0-0-0-0-0-0-0-0-0-0-0-0-0-0-0-0-0-0-0-0-0-0-
D-|--------------------------------------------------------
A-|--------------------------------------------------------
E-|--------------------------------------------------------

e-|------------------------------------------------------
B-|------------------------------------------------------
G-|------------------------------------------------------
D-|------------------------------------------------------
A-|-7\5-----------7\5------------7\5---------------------
E-|-----8-5-8--5-5----8-5-8--5-5-----8-5-8--5-5-8-8-5----

e-|-----------------------------------
B-|-----------------------------------
G-|-6-6--9--9-6-6----6-6--9--9-6-6----
D-|-7-7-10-10-7-5----7-7-10-10-7-7----
A-|-7-7-10-10-7-7----7-7-10-10-7-7----
E-|-5-5--8--8-5-5-0--5-5--8--8-5-5-0--

e-|-----------------------
B-|-----------------------
G-|--9--9--6-----9--9--6--
D-|-10-10--7----10-10--7--
A-|-10-10--7----10-10--7--
E-|--8--8--5-----8--8--5--

e-|------------------------------------------------------------------------
B-|------------------------------------------------------------------------
G-|-7-7-10-10-7-7----6-6--9--9-6-6----9-9-12--------------6-6--9--9-6-6----
D-|-7-7-10-10-7-7----7-7-10-10-7-7----9-9-12--------------7-7-10-10-7-7----
A-|-5-5--8--8-5-5-0--7-7-10-10-7-7----7-7-10--------------7-7-10-10-7-7----
E-|------------------5-5--8--8-5-5-0---------3/-3/-3/\-0--5-5--8--8-5-5-0--

e-|-----------------------
B-|-----------------------
G-|--9--9--6-----9--9--6--
D-|-10-10--7----10-10--7--
A-|-10-10--7----10-10--7--
E-|--8--8--5-----8--8--5--

e-|----------------------------------------------------------------------------------------
B-|----------------------------------------------------------------------------------------
G-|-7-7-10-10-7-7----6-6--9--9-6-6---------------------------------------------------------
D-|-7-7-10-10-7-7----7-7-10-10-7-7---------------------------------------------------------
A-|-5-5--8--8-5-5-0--7-7-10-10-7-7-----7\5-----------7\5------------7\5--------------------
E-|------------------5-5--8--8-5-5-0-------8-5-8--5-5----8-5-8--5-5-----8-5-8--5-5-5-5-8-5---

e-|---------------------
B-|---------------------
G-|-6-6--9--9-6-6----6--
D-|-7-7-10-10-7-5----7--
A-|-7-7-10-10-7-7----7--
E-|-5-5--8--8-5-5-0--5--

e-|------------------------------------------
B-|------------------------------------------
G-|-9-9-7-7-7-4---9-9-7-7-7-4---9-9-7-7-7-4--
D-|-9-9-7-7-7-4---9-9-7-7-7-4---9-9-7-7-7-4--
A-|-7-7-5-5-5-2---7-7-5-5-5-2---7-7-5-5-5-2--
E-|------------------------------------------

e-|-12-12-12-12-12-12-12-12-15-15-15-15-15-15-15-15-12-12-12-12-12-12-12-12-9/10-10-10-10-9/10-10-9/10-10-----
B-|-12-12-12-12-12-12-12-12-15-15-15-15-15-15-15-15-12-12-12-12-12-12-12-12-9/10-10-10-10-9/10-10-9/10-10-----
G-|-----------------------------------------------------------------------------------------------------------
D-|-----------------------------------------------------------------------------------------------------------
A-|-----------------------------------------------------------------------------------------------------------
E-|-----------------------------------------------------------------------------------------------------------

e-|-12-12-12-12-12-12-12-12-15-15-15-15-15-15-15-15-15-15-14-14-13-13-12-12-15-15-14-14-13-13-12-12-----------
B-|-12-12-12-12-12-12-12-12-15-15-15-15-15-15-15-15-15-15-14-14-13-13-12-12-15-15-14-14-13-13-12-12-----------
G-|-----------------------------------------------------------------------------------------------------------
D-|-----------------------------------------------------------------------------------------------------------
A-|-----------------------------------------------------------------------------------------------------------
E-|-----------------------------------------------------------------------------------------------------------

e-|-----------------------------------------------------------------------------------------------------------
B-|-----------------------------------------------------------------------------------------------------------
G-|-7-7-10-10-7-7-10-10-10-7-7-10-10-7-7-10-10-10-6-6--9--9-6-6--9--9--9-6-6--9--9-6-6--9--9--9---------------
D-|-7-7-10-10-7-7-10-10-10-7-7-10-10-7-7-10-10-10-7-7-10-10-7-7-10-10-10-7-7-10-10-7-7-10-10-10---------------
A-|-5-5--8--8-5-5--8--8--8-5-5--8--8-5-5--8--8--8-7-7-10-10-7-7-10-10-10-7-7-10-10-7-7-10-10-10---------------
E-|-----------------------------------------------5-5--8--8-5-5--8--8--8-5-5--8--8-5-5--8--8--8---------------

e-|-------------------------
B-|-------------------------
G-|--9--9--6-----9--9--6----
D-|-10-10--7----10-10--7----
A-|-10-10--7----10-10--7----
E-|--8--8--5-----8--8--5----

e-|------------------------------------------------------------------------
B-|------------------------------------------------------------------------
G-|-7-7-10-10-7-7----6-6--9--9-6-6----9-9-12--------------6-6--9--9-6-6----
D-|-7-7-10-10-7-7----7-7-10-10-7-7----9-9-12--------------7-7-10-10-7-7----
A-|-5-5--8--8-5-5-0--7-7-10-10-7-7----7-7-10--------------7-7-10-10-7-7----
E-|------------------5-5--8--8-5-5-0---------3/-3/-3/\-0--5-5--8--8-5-5-0--

e-|----------------------------------------------------------------
B-|----------------------------------------------------------------
G-|----------------------------------------------------------------
D-|----------------------------------------------------------------
A-|-7\5-----------7\5------------7\5-------------------------------
E-|----8-5-8--5-5----8-5-8--5-5-----8-5-8--5-5-5-5-8-5-x2----------

e-|----------------------------------------------------------------
B-|----------------------------------------------------------------
G-|-6-6--9--9-6-6--9--9--9-6-6--9--9-6-6--9--9--9-6-6--9--9-6-6--9--9--9-6-6--9--9-6-6--9--9--9-----------------
D-|-7-7-10-10-7-7-10-10-10-7-7-10-10-7-7-10-10-10-7-7-10-10-7-7-10-10-10-7-7-10-10-7-7-10-10-10-----------------
A-|-7-7-10-10-7-7-10-10-10-7-7-10-10-7-7-10-10-10-7-7-10-10-7-7-10-10-10-7-7-10-10-7-7-10-10-10-----------------
E-|-5-5--8--8-5-5--8--8--8-5-5--8--8-5-5--8--8--8-5-5--8--8-5-5--8--8--8-5-5--8--8-5-5--8--8--8-----------------

e-|----------------------------------------------------------------
B-|----------------------------------------------------------------
G-|-9-9-7-7-7-4---9-9-7-7-7-4---9-9-7-7-7-4------------------------
D-|-9-9-7-7-7-4---9-9-7-7-7-4---9-9-7-7-7-4------------------------
A-|-7-7-5-5-5-2---7-7-5-5-5-2---7-7-5-5-5-2---7\5------------------


Important: The song above is NOT stored on the Chordie server. The original song is hosted at www.xguitar.com. Chordie works as a search engine and provides on-the-fly formatting. Chordie does not index songs against artists'/composers' will. To remove this song please click here.

This song is displayed as text-only. Transposing and tuning is only available for chordpro-songs.

Login - add to songbook

Rating click stars to rate

Layout
Accuracy

SHARE PAGE  




You need to log in to post comments