Guitar Tabs, Chords and Lyrics


Viva Las Vegas    Dead Kennedys



Dead Kennedys - Viva Las Vegas
Tabbed By: Notsosuperhero
Email: Notsosuperhero@hotmail.com

Tuning: Standard (E A D G B E)

After searching for this tab, I've come to find not one,
so I decided to tab it out myself.

Intro/Verse:
E|----------------||
B|---3-33-5-------||
G|---4-44-4-------||
D|---5-55-5-------||
A|----------------||
E|----------------||

Intro(Guitar 2)
E|------------------------||
B|--8-9-10-8-9-10--9-8----||
G|------------------------||
D|------------------------||
A|------------------------||
E|------------------------||


Bridge/Post Verse:
*just play this(Em) a couple of times,
 listen to the song for precise timing
E|------||
B|------||
G|------||
D|--2~--||
A|--2~--||
E|--0~--||

I still need to figure out the chorus riff, but that will take me some time because


Important: The song above is NOT stored on the Chordie server. The original song is hosted at www.xguitar.com. Chordie works as a search engine and provides on-the-fly formatting. Chordie does not index songs against artists'/composers' will. To remove this song please click here.

This song is displayed as text-only. Transposing and tuning is only available for chordpro-songs.

Login - add to songbook

Rating click stars to rate

Layout
Accuracy

SHARE PAGE  




You need to log in to post comments