Guitar Tabs, Chords and Lyrics


Prey    Dead Kennedys



Dead Kennedys
The Prey
By: Jared Estes

(0:21)Play the 1st 4 notes 12 times…
E---------------------------------------
B-11------10-------9-----10-----11/(1)--
G---------------------------------------
D---------------------------------------
A---------------------------------------
E---------------------------------------

(1:21)
E-----------------------------------------------
B--8~-----8~-----12~-------------12~--------12~-
G--8~-----8~-----12~----12-11----12~----12--12~-
D--8~-----8~-----12~--12---------12~--12----12~-
A-----------------------------------------------
E-----------------------------------------------

(1:55)At this part just play around with this chord…
E-------                   ------12--------12----12-12----
B--12---                   -----12------12----12---12-----
G--12---      Sorta Like   --12-----12---12-----12----12--
D--12---    This(Example)> --12--------12-----12----------
A-------                   -----------12------------------
E-------                   -------------------------------

(2:17)
E-------------------------------------------
B--12~--------12~---------8~---8---8~---8---
G--12~-----12-12~---12----8~----8--8~--8-8--
D--12~---12---12~-----12--8~--8----8~-------
A------12---------12------------------------
E-------------------------------------------

(3:15)
E---------------------------------------
B----------------12-12-15/(12)----------
G----------12-12-12-12-15/(12)----------   X3
D--(12)-12-12-12-12-12-15/(12)----------
A---------------------------------------
E---------------------------------------			
			
E---------------------------------------
B----------------12-12-15/(17)----------
G----------12-12-12-12-15/(17)----------   X2
D--(12)-12-12-12-12-12-15/(17)----------
A---------------------------------------
E---------------------------------------

E---------------------------------------
B----------------12-12------------------
G----------12-12-12-12------------------
D--(12)-12-12-12-12-12------------------
A---------------------------------------
E---------------------------------------

			ROCK THE BAT!						                               			~JARED ESTES~


Important: The song above is NOT stored on the Chordie server. The original song is hosted at www.xguitar.com. Chordie works as a search engine and provides on-the-fly formatting. Chordie does not index songs against artists'/composers' will. To remove this song please click here.

This song is displayed as text-only. Transposing and tuning is only available for chordpro-songs.

Login - add to songbook

Rating click stars to rate

Layout
Accuracy

SHARE PAGE  




You need to log in to post comments