Guitar Tabs, Chords and Lyrics


Pull My Strings    Dead Kennedys



_ -palm mute

/ - slide

~ - whammy bar

b - bend whole step 13 to sound like 15 etc.

hb - half bend 13 to 14 etc.

no chords are exact number of strums

Verse

Part 1 (play this alot
play palm muted sometimes) Part 2 (when he says i wanna be a prefab superstar)
e|-------------------|-------------------| Part 3----------------------------|
B|-----7-5-------7-5-|-------------------|-----9-7-----9-7-----9-7-----------|
G|-----7-5-------7-5-|-------------------|-----9-7-6-8-9-7-6-8-9-7-6-8-4~----|
D|-----7-5-------7-5-|-----___-------___-|-----9-7-7-9-9-7-7-9-9-7-7-9-5~----|
A|-----5-3-------5-3-|-___-5-3-_____-5-3-|-----7-5-7-9-7-5-7-9-7-5-7-9-5~----|
E|-3/5-----3/5-5-----|-3/5-----3/5-5-----|-3/7-----5-7-----5-7-----5-7-3~----|

Then play part 1 until he says (I'll make my music) then play Part 2
The Part 3

Part 4 (My Payola!)
e|--------------------|------------------------------------------------------|
B|--------------------|-5-3-5-3----------------------------------------------|
G|--------------------|-5-3-5-3----------------------------------------------|
D|----55---5---5---5--|-5-3-5-3----------------------------------------------|
A|--------------------|-3-1-3-1----------------------------------------------|
E|-33----3---3---3----|------------------------------------------------------|

Then play verse things again (figure out the order!, its not hard!)

Reggae part! Sell my soul part!
e|-3-7-7--8-|-then---|-------------------------------------------------------|
B|-3-7-8--8-|-Part 3-|-----8-------------------------------------------------|
G|-4-8-9--9-|--------|-4-8-9--9----------------------------------------------|
D|-5-9-9-10-|--------|-5-9-9-10----------------------------------------------|
A|-5-9-7-10-|--------|-5-9-7-10----------------------------------------------|
E|-3-7-7--8-|--------|-3-7----8----------------------------------------------|

Solo
e|---------------------------------------------------------------------------|
B|------------------------------------8--------------------------------------|
G|---------------------------777-999-9-9-12-14-14b-14b-14b-14hb-12----12--12-|
D|-7b-7b-7b-7hb-7-5---5--7-9---------------------------------------14---14---|
A|------------------7--7-----------------------------------------------------|
E|---------------------------------------------------------------------------|

e|--------------------------------------------------15b-15b-15b-15hb-12------12-|
B|--------------------------------------1717-----17--------------------151215---|
G|-----------------------------------16-----16-16-------------------------------|
D|-14-12---------------------1212/14--------------------------------------------|
A|-------14-13-12-10------------------------------------------------------------|
E|-------------------10-1212----------------------------------------------------|

e|----------------16-------------------------------16-----16----16----16-18hb|
B|-14hb-15b-15b-17-----16-18-16-18----------16-16b----16b----18----18--------|
G|------------------16-------------1715--------------------------------------|
D|-------------------------------------1815----------------------------------|
A|---------------------------------------------------------------------------|
E|---------------------------------------------------------------------------|

e|-18hb-18hb-|-1916---|----16-18-18hb-18hb-18hb-212121-
B|-----------|-----18-|-18-----------------------------
G|-----------|--------|--------------------------------
D|-----------|-4or5X--|--------------------------------
A|-----------|--------|--------------------------------
E|-----------|-FAST---|--------------------------------

e------------------------------|
b-1715----------------15--1517-|
g-----1614-------14-16--16-----|
d---------171417---------------|
a------------------------------
e------------------------------

e|-15-------|--------|-----------------------------------------------------------
B|---17-----|--------|----------------17----17----1515hb15b---17--------17--1719-
G|-----16---|-161514-|-16-14-------16----16----16-----------16--16171616--16-----
D|-------14-|--------|-------17-14-----------------------------------------------
A|----------|--alot -|-----------------------------------------------------------
E|----------|--FAST--|-----------------------------------------------------------

Then Sell my soul part, then My Payola!


Important: The song above is NOT stored on the Chordie server. The original song is hosted at www.xguitar.com. Chordie works as a search engine and provides on-the-fly formatting. Chordie does not index songs against artists'/composers' will. To remove this song please click here.

This song is displayed as text-only. Transposing and tuning is only available for chordpro-songs.

Login - add to songbook

Rating click stars to rate

Layout
Accuracy

SHARE PAGE  




You need to log in to post comments