Guitar Tabs, Chords and Lyrics


Bleed for Me    Dead Kennedys



Dead Kennedys - Bleed For

By Peter J. P.
Radicalhooligan@aol.com

I'll have more of the song up soon...

~ = tremolo pick


Intro: (let ring)

e------------------------------------------------------------
b-------5-------5--5-5-------------------5------5--5-5-------
g--8-8------------------8-----8--8--8-8-----------------8----
d------------------------------------------------------------
a------------------------------------------------------------
e------------------------------------------------------------

e----------6--7----11--12--------------------5--6----10--11-------------
b--5--5-5---------------------11--12------5-------------------10--11----
g-----------------------------------------------------------------------
d-----------------------------------------------------------------------
a-----------------------------------------------------------------------
e-----------------------------------------------------------------------

                 4x                              2x
e------------------ -----5--6~----6-5-6-5-6-5------ -----5----
b------------------ ---5--------------------------- ---5------
g------------------ ------------------------------- ----------
d------------------ ------------------------------- ----------
a------00-22-00---- ------------------------------- ----------
e---00------------- ------------------------------- ----------

                      3x
e----------------------- -------
b----------------------- -------
g---9-9-9-9--7-7-7-7---- ---9---
d---9-9-9-9--7-7-7-7---- ---9---
a---7-7-7-7--5-5-5-5---- ---7---


Important: The song above is NOT stored on the Chordie server. The original song is hosted at www.xguitar.com. Chordie works as a search engine and provides on-the-fly formatting. Chordie does not index songs against artists'/composers' will. To remove this song please click here.

This song is displayed as text-only. Transposing and tuning is only available for chordpro-songs.

Login - add to songbook

Rating click stars to rate

Layout
Accuracy

SHARE PAGE  




You need to log in to post comments