Guitar Tabs, Chords and Lyrics


Moon Over Marin   Dead Kennedys

   ---------------



  [D]    [A]     [D]    [A]                      
e -------- --------   (this may as well be played with totally different
b 33--2--- 33--2---    fingering - I really don't know)
g 22--2--- 22--2---
d 00--2--- 00--2---
a ----0--- ----0---
e -------- --------



(riff 2)

  [A]                          [G]         
e ---9-------- 9----------- ---9-------- 9-----------
b 10----10---- ---10------- 10----10---- ---10-------
g ---------9-- ------9--11- ---------9-- ------9--11-
d ------------ ------------ ------------ ------------
a ------------ ------------ ------------ ------------
e ------------ ------------ ------------ ------------


  [B]                          [D]        [C#] 
e ---9-------- 9----------- ---9-------- 9-----------
b 10----10---- ---10------- 10----10---- ---10-------
g ---------9-- ------9--11- ---------9-- ------9--11-
d ------------ ------------ ------------ ------------
a ------------ ------------ ------------ ------------
e ------------ ------------ ------------ ------------



(riff 3)

  [A]                  [G]                [B] [D] [C#] [A] 
e -------- -------- -------- -------- -------- -------- ------------ --------
b -------- -------- -------- -------- -------- -------- ------------ --------
g -------- -------- -------- -------- -------- -------- ------------ --------
d ----77-- ----77-- ----55-- ----55-- ----99-- ----99-- 12-12-11-11- 7-------
a --77--77 --77--77 --55--55 --55--55 --99--99 --99--99 12-12-9--9-- 7-------
e 55------ 55------ 33------ 33------ 77------ 77------ 10-10-9--9-- 5-------


and in the intro only:

e 5-------
b 5-------
g 6-------
d 7-------
a --------
e --------


(guitar continues with riff 3)


The [A]crowded future stings my eyes
I [G]still find time to exercise
In [B]uniform with two white stripes  [D]  [C#]
Un[A]lock my section of the sand
It's [G]fenced off to the water's edge
I [B]clamp a gasmask on my head
[D]On my [C#]beach at [A]night
[D]Bathe in [C#]my moon[E]light
(riff 2)


Another tanker's hit the rocks
Abandoned to spill out its guts
The sand is laced with sticky glops

O'shimmering moonlight sheen upon
The waves and water clogged with oil
White gassed steam up from the soil
On my beach at night
Bathe in my moonlight

(riff 2)

(riff 1)

Solo:

e -------- --------
b -------- --------
g -------- --------  (repeat 4x - twice single hits, twice double hits)
d -------- --------
a -------- 5-4-----
e 0-5-7-2- ----5-2-
e ------------ ------9--9-- 12-12-9--9-- ------------
b 10-10-10-10- 10-10------- ------------ 12-12-10-10-
g ------------ ------------ ------------ ------------
d ------------ ------------ ------------ ------------
a ------------ ------------ ------------ ------------
e ------------ ------------ ------------ ------------
e ------------ ------7--7-- 12-12-9--9-- ------------
b 8--8--8--8-- 8--8-------- ------------ 12-12-10-10-
g ------------ ------------ ------------ ------------
d ------------ ------------ ------------ ------------
a ------------ ------------ ------------ ------------
e ------------ ------------ ------------ ------------
e ------------ ------9--9-- 12-12-9--9-- ------------
b 10-10-10-10- 10-10------- ------------ 12-12-10-10-
g ------------ ------------ ------------ ------------
d ------------ ------------ ------------ ------------
a ------------ ------------ ------------ ------------
e ------------ ------------ ------------ ------------


(switch to chords)

[D]  [C#]   [A]     [D]  [C#]   [E]                      

I squash dead fish between my toes
Try not to step on any bones
I turn around and I go home

I slip back through my basement door
Switch off all the I own below
Dive in my scalding wooden tub
My own beach ar night
Bathe in my moonlight


(with riff 2:)

[A]       [G]...ight  [B]...ight  [D]There will always be a [C#]moon over marin

[A]       [G]         [B]         [D]   [C#]         
(with riff 1:)
(slowing down)
[D]       [A]      [D]      [A]     [D]     [A]     [D]  [A] [D] [A] [D] [A] [D] [G#] [A] 
-----------------------------------------------------------------

As always, corrections are welcome. Longer looking bars have
two-digit frets but are (probably) of same length as the rest.
Just listen to the record if you're not certain about the rhythm.

Juha Kivijarvi
juhkivij@utu.fi

Important: The song above is NOT stored on the Chordie server. The original song is hosted at www.xguitar.com. Chordie works as a search engine and provides on-the-fly formatting. Chordie does not index songs against artists'/composers' will. To remove this song please click here.

Text color:
Chord color:
Chord grids: 
Font size:    
Page size: 

A B C# D E G G#
variations - click chord images

Login - add to songbook

Transpose chords

Tuning

Rating click stars to rate

Layout
Accuracy

SHARE PAGE  




You need to log in to post comments