Guitar Tabs, Chords and Lyrics


Terminal Preppie    Dead Kennedys



e-|-------------------------------------------------------|
B-|-------------------------------------------------------|
G-|-------------------------------------------------------|
D-|-------5-5-----5-5-------5-5-7-7-5-5-------5-5-7-7-5-5-|
A-|-5-8-8-3-3-8-8-3-3-5-8-8-3-3-5-5-3-3-5-8-8-3-3-5-5-3-3-|
E-|-3-6-6-----6-6-----3-6-6-------------3-6-6-------------|

e-|-------------------------------------------------------------------
B-|-------------------------------------------------------------------
G-|-------------------------------------------------------------------
D-|-----------------------5-------------------------------------------
A-|-5-5-8-8-5-5-8-8-5-5-8-3-8-5-5-8-8-5-5-8-8-3-3-3-3-5-5-8-8-5-5-8-8-
E-|-3-3-6-6-3-3-6-6-3-3-6---6-3-3-6-6-3-3-6-6-1-1-1-1-3-3-6-6-3-3-6-6-

e-|-------------------------|
B-|-------------------------|
G-|-------------------------|
D-|-------5---6-6-5-5-------|
A-|-5-5-8-3-8-4-4-3-3-8-8-5-|
E-|-3-3-6---6---------6-6-3-|

e-|-------------------------------------------------------------------------|
B-|-------------------------------------------------------------------------|
G-|---------5-5-7-7-5-7---------5-5-7-7-5-7---------5-5-7-7-5-7-------------|
D-|-------------------------------------------------------------------------|
A-|-5-5-5-5-------------3-3-3-3-------------5-5-5-5-------------3-3-3-3-5-5-|
E-|-3-3-3-3-------------1-1-1-1-------------3-3-3-3-------------1-1-1-1-3-3-|

e-|---------------------------------|
B-|---------------------------------|
G-|---------------------------------|
D-|-------5-5-----5-------5-5-7-7-5-|
A-|-5-8-8-3-3-8-8-3-5-8-8-3-3-5-5-3-|
E-|-3-6-6-----6-6---3-6-6-----------|

e-|-------------------------------------------------------------------
B-|-------------------------------------------------------------------
G-|-------------------------------------------------------------------
D-|-----------------------5-------------------------------------------
A-|-5-5-8-8-5-5-8-8-5-5-8-3-8-5-5-8-8-5-5-8-8-3-3-3-3-5-5-8-8-5-5-8-8-
E-|-3-3-6-6-3-3-6-6-3-3-6---6-3-3-6-6-3-3-6-6-1-1-1-1-3-3-6-6-3-3-6-6-

e-|-------------------------|
B-|-------------------------|
G-|-------------------------|
D-|-------5---6-6-5-5-------|
A-|-5-5-8-3-8-4-4-3-3-8-8-5-|
E-|-3-3-6---6---------6-6-3-|

e-|-------------------------------------------------------------------------|
B-|-------------------------------------------------------------------------|
G-|---------5-5-7-7-5-7---------5-5-7-7-5-7---------5-5-7-7-5-7-------------|
D-|-------------------------------------------------------------------------|
A-|-5-5-5-5-------------3-3-3-3-------------5-5-5-5-------------3-3-3-3-5-5-|
E-|-3-3-3-3-------------1-1-1-1-------------3-3-3-3-------------1-1-1-1-3-3-|

e-|-----------------------------------------------------------------|
B-|-----------------------------------------------------------------|
G-|-----------------------------------------------------------------|
D-|-----------------------------------------------------------------|
A-|-8-5-5-5-8-5-5-5-8-5-5-5-8-5-5-5-8-5-5-5-8-5-5-5-8-5-5-5-8-5-5-5-|
E-|-6-3-3-3-6-3-3-3-6-3-3-3-6-3-3-3-6-3-3-3-6-3-3-3-6-3-3-3-6-3-3-3-|

e-|---------------------------------------------------------------------
B-|---------------------------------------------------------------------
G-|---------------------------------------------------------------------
D-|-------------------------------------------------5-------------------
A-|-5-5-8-8-5-5-8-8-5-5-8-3-8-5-5-8-8-5-5-8-8-5-5-8-3-8-5-5-8-8-5-5-8-8-
E-|-3-3-6-6-3-3-6-6-3-3-6---6-3-3-6-6-3-3-6-6-3-3-6---6-3-3-6-6-3-3-6-6-

e-|-------------------------------------------------|
B-|-------------------------------------------------|
G-|-------------------------------------------------|
D-|-------------------------------------------------|
A-|-5-5-8-8-5-5-8-8-5-5-8-8-5-5-8-8-5-5-5-5-5-5-5-5-|
E-|-3-3-6-6-3-3-6-6-3-3-6-6-3-3-6-6-3-3-3-3-3-3-3-3-|

e-|-------------------------------------------------------------------------
B-|-------------------------------------------------------------------------
G-|---------5-5-7-7-5-7---------5-5-7-7-5-7---------5-5-7-7-5-7-------------
D-|-------------------------------------------------------------------------
A-|-5-5-5-5-------------3-3-3-3-------------5-5-5-5-------------3-3-3-3-5-5-
E-|-3-3-3-3-------------1-1-1-1-------------3-3-3-3-------------1-1-1-1-3-3-

e-|-------------------------------------------------------------------------|
B-|-------------------------------------------------------------------------|
G-|---------7-7-9-9-7-9---------7-7-9-9-7-9---------7-7-9-9-7-9-------------|
D-|-------------------------------------------------------------------------|
A-|-7-7-7-7-------------5-5-5-5-------------7-7-7-7-------------5-5-5-5-7-7-|
E-|-5-5-5-5-------------3-3-3-3-------------5-5-5-5-------------3-3-3-3-5-5-|

e-|--------------------------------------------|
B-|--------------------------------------------|
G-|-----5-5-9-9-5-5-7-5-------5-5-9-9-5-5-12-9-|
D-|-7-7-----------------7-7-7------------------|
A-|--------------------------------------------|
E-|--------------------------------------------|

e-|-----------------------------------------------------------------
B-|-----------------------------------------------------------------
G-|-----------------------------------------------------------------
D-|----------------------------7-------------------------------7----
A-|-7-7-10-10-7-7-10-10-7-7-10-5-10-7-7-10-10-7-7-10-10-7-7-10-5-10-
E-|-5-5--8--8-5-5--8--8-5-5--8----8-5-5--8--8-5-5--8--8-5-5--8----8-

e-|------------------------------------------------|
B-|------------------------------------------------|
G-|------------------------------------------------|
D-|----------------------------7-------------------|
A-|-7-7-10-10-7-7-10-10-7-7-10-5-10-7-10-5-10-10-7-|


Important: The song above is NOT stored on the Chordie server. The original song is hosted at www.xguitar.com. Chordie works as a search engine and provides on-the-fly formatting. Chordie does not index songs against artists'/composers' will. To remove this song please click here.

This song is displayed as text-only. Transposing and tuning is only available for chordpro-songs.

Login - add to songbook

Rating click stars to rate

Layout
Accuracy

SHARE PAGE  




You need to log in to post comments