Together As One

Death


Band: Death Album: Human Song: TOGETHER AS ONE
Copyright (c) Combat 1991 Version 1.0 - 19.12.2004
Transcribed By: Pekka Räihä alias Rankku Email: rankku (a) luukku.com
I have played this a lot and I'm pretty sure that this is how it goes. Enjoy!
. - palm mute / - slide up to
Tunning D G C F A D
Part1 . . . . . . . . . . . . . . . . . . . . . . . . . . . . . . . ||----------------------------------|---------------------------------| ||----------------------------------|---------------------------------| ||----------------------------------|---------------------------------| ||----------------------------------|---------------------------------| ||------------------4-4-4-4-4-4-4-4-|---------4-4-4-4-5-5-5-5---------| ||--2-2-2-2-2-2-2-2-----------------|-2-2-2-2-----------------3-3-3-3-|
. . . . . . . . . . . . . . . . . . . . . . . . . . . . . . . . |---------------------------------|----------------------------------|| |---------------------------------|----------------------------------|| |---------------------------------|----------------------------------|| x2 |---------------------------------|----------------------------------|| |-----------------4-4-4-4-4-4-4-4-|---------4-4-4-4-3-3-3-3----------|| |-2-2-2-2-2-2-2-2-----------------|-2-2-2-2-----------------1-1-1-1--||
Part2 . . . . . . . . . . . . . . . . . . . . . . . . . . . . . . . . |---------------------------------|-------------------------------------| |---------------------------------|-------------------------------------| |-----------------9-9-9-9-9-9-9-9-|---------9-9-9-9-11-11-11-11---------| |-7-7-7-7-7-7-7-7-----------------|-7-7-7-7---------------------8-8-8-8-| |---------------------------------|-------------------------------------| |---------------------------------|-------------------------------------|
. . . . . . . . . . . . . . . . . . . . . . . . . . . . . . . . |---------------------------------|---------------------------------| |---------------------------------|---------------------------------| |-----------------9-9-9-9-9-9-9-9-|---------9-9-9-9-8-8-8-8---------| |-7-7-7-7-7-7-7-7-----------------|-7-7-7-7-----------------6-6-6-6-| |---------------------------------|---------------------------------| |---------------------------------|---------------------------------|
. . . . . . . . . . . . . . . . . . . . . . . . . . . . . . . . |---------------------------------|-------------------------------------| |---------------------------------|-------------------------------------| |-----------------9-9-9-9-9-9-9-9-|---------9-9-9-9-11-11-11-11---------| |-7-7-7-7-7-7-7-7-----------------|-7-7-7-7---------------------8-8-8-8-| |---------------------------------|-------------------------------------| |---------------------------------|-------------------------------------|
. . . . . . . . . . . . . . . . |---------------------------------|-------------| |---------------------------------|-------------| |-----------------9-9-9-9-9-9-9-9-|----9--8-----| |-7-7-7-7-7-7-7-7-----------------|-7--------6--| |---------------------------------|-------------| |---------------------------------|-------------|
Part3 . . . . . . . . . . . . . . . . . . . . . . . . . . . . . . . . ||----------------------------------|---------------------------------| ||----------------------------------|---------------------------------| ||----------------------------------|---------------------------------| ||----------------------------------|---------------------------------| ||----------------------------------|---------------------------------| ||--0-0-0-0-0-0-0-0-1-1-1-1-1-1-1-1-|-1-1-1-1-0-0-0-0-3-3-3-3-1-1-1-1-|
. . . . . . . . . . . . . . . . . |---------------------------------|-----------------------|| |---------------------------------|-----------------------|| |---------------------------------|-----------------------|| |---------------------------------|----2-3---4------------|| |---------------------------------|--0-----0---3-0-3------|| |-0-0-0-0-0-0-0-0-1-1-1-1-1-1-1-1-|-----------------------||
. . . . . . . . . . . . . . . . . |---------------------------------|-----------------------|| |---------------------------------|-----------------------|| |---------------------------------|----9-10---11----------|| |---------------------------------|--7------7----10-7-10--|| |---------------------------------|-----------------------|| |-0-0-0-0-0-0-0-0-1-1-1-1-1-1-1-1-|-----------------------||
Part4
Gtr I |-3-| |-3-| . . . . . . . . . . . . . . . . . |-----------------------------------------------| |-----------------------------------------------| |-----------------------------------------------| |-----------8-----------------------------------| |-----------6-----------------------------------| |-7---7-7-7----7-7-7-7-7---7-7-7---7-7-7-7-7-7--|
Gtr II |-----------------------------------------------| |-----------------------------------------------| |-----------------------------------------------| |-9--------/13----------------------------------| |-----------------------------------------------| |-----------------------------------------------|
Gtr I |-3-| |-3-| . . . . . . . . . . . . . . . . . |-----------------------------------------------|| |-----------------------------------------------|| |-----------------------------------------------|| |-----------7-----------------------------------|| |-----------5-----------------------------------|| |-7---7-7-7----7-7-7-7-7---7-7-7---7-7-7-7-7-7--||
Gtr II |-----------------------------------------------| |-----------------------------------------------| |-----------------------------------------------| |-9--------/12----------------------------------| |-----------------------------------------------| |-----------------------------------------------|
Gtr I | |-3-| |-3-| |-3-| |-3-| | . . . . . . . . . . . . |-----------------------------------------------| |-----------------------------------------------| |-----------------------------------------------| |-----------8-----------------------------------| |-----------6--------6--------6-----------------| |-7---7-7-7----7-7-7----7-7-7----7-7-7----------|
Gtr II |-----------------------------------------------| |-----------------------------------------------| |-----------------------------------------------| |-9--------/13----------------------------------| |-----------------------------------------------| |-----------------------------------------------|
Gtr I | |-3-| |-3-| |-3-| |-3-| | . . . . . . . . . . . . |-----------------------------------------------| |-----------------------------------------------| |-----------------------------------------------| |-----------7-----------------------------------| |-----------5--------5--------5-----------------| |-7---7-7-7----7-7-7----7-7-7----7-7-7----------|
Gtr II |-----------------------------------------------| |-----------------------------------------------| |----------/13----------------------------------| |-9---------------------------------------------| |-----------------------------------------------| |-----------------------------------------------|
Osa5
|-3-| |-3-| |-3-| |-3-| |-3-| |-3-| . . . . . . . . . . . . . . . . . . |------------------------------|------------------------------| |------------------------------|------------------------------| |-----------8---------7--------|-----------7---------6--------| |-2---------8---------7--------|-2---------7---------6--------| x2 |-2---------6-6-6-6---5-5-5-5--|-2---------5-5-5-5---4-4-4-4--| |-0-0-0-0----------------------|-0-0-0-0----------------------|
|-------| |-------| |-------| |--2----| |--2----| |--0----|
Osa6
. . . . . . . . . . . . . . . . . . ||----------------------------------------------------------| ||----------------------------------------------------------| ||----------------------------------------------------------| ||---6--5--------------------------------------5-6-5--3--2--| ||---6--5--------------------------------------5/6\5--3--2--| ||---4--3--3-3-3-3-3-3-3-3-3-3-3-3-3-3-3-3-3-3-3/4\3--1--0--|
. . . . . . . . . . . . . . . . . . . . . . |-----------------------------------------------|| |-----------------------------------------------|| |-----------------------------------------------|| |-----------------------------------------------|| x4 |-----------------------------------------------|| |--0-0-0-0-0-0-0-0-0-0-0-0-0-0-0-0-0-0-0-0-0-0--||
Soolo |3| |3| . . . . ... . . . . ... . |----------------------------------| |----------------------------------| |----------------------------------| |---------------------------3---3--| x8 |---------------------------3---3--| |-0-0-0-0-000-0-0-0-0-000-0-1---1--|
Osa7
|3| |3| . . . . ... ... |---------------------------| |---------------------------| |---------------------------| |---------------------------| x3 |--9-0---8-0----------------| |------0-----0-550-550------|
. . . . |--------------| |--------------| |--------------| |--------------| |--9-0---8-0---| |------0-----0-|
. . . . . . . . . . . . . . . . . . |---------------------------------|--------------------------------| |---------------------------------|--------------------------------| |---------------------------------|--------------------------------| |-7-----6---------7-----9---------|-7-----6---------7-----9--------| |---8-0---0-6-5-----6-0---0-9-0---|---8-0---0-6-5-----6-0---0-9-0--| |---------------0---------------0-|---------------0----------------|
|3| |3| . . . . ... ... |---------------------------| |---------------------------| |---------------------------| |---------------------------| x3 |--9-0---8-0----------------| |------0-----0-550-550------|
. . . . |--------------| |--------------| |--------------| |--------------| |--9-0---8-0---| |------0-----0-|
. . . . . . . . . |------------------|--------------------| |------------------|--------------------| |------------------|--------------------| |---5-4---4--------|-----8-7---7--------| |-------------4----|---------------7----| |-2-----2---2---2--|-0-5-----5---5---5--|
. . . . . . . . . . |--------------------|--------------------| |--------------------|--------------------| |--------------------|--------------------| |-----5-4---4--------|-----8-7---7--------| |---------------4----|---------------7----| |-0-2-----2---2---2--|-0-5-----5---5---5--|
|3| |3| ... ... |------------------------------| |------------------------------| |-11-------10------------------| |-----9--------8---------------| x3 |------------------------------| |-------0--------0-550-550-----|
|3| ... |------------------------------| |------------------------------| |-11-------10------------------| |-----9--------8-------7-------| |----------------------7-------| |--------0-------0-550-5-------|
Paly again parts 1-5
End . . . . . . . . . . . . . . . . . . ||----------------------------------------------------------| ||----------------------------------------------------------| ||----------------------------------------------------------| ||---6--5--------------------------------------5-6-5--3--2--| ||---6--5--------------------------------------5/6\5--3--2--| ||---4--3--3-3-3-3-3-3-3-3-3-3-3-3-3-3-3-3-3-3-3/4\3--1--0--|
. . . . . . . . . . . . . . . . . . . . . . |-----------------------------------------------|| |-----------------------------------------------|| |-----------------------------------------------|| |-----------------------------------------------|| x3 |-----------------------------------------------|| |--0-0-0-0-0-0-0-0-0-0-0-0-0-0-0-0-0-0-0-0-0-0--||
Gtr I . . . . . . . . . . . . . . . . . . |----------------------------------------------------------| |----------------------------------------------------------| |----------------------------------------------------------| |---6--5--------------------------------------5-6-5--3--2--| |---6--5--------------------------------------5/6\5--3--2--| |---4--3--3-3-3-3-3-3-3-3-3-3-3-3-3-3-3-3-3-3-3/4\3--1--0--|
Gtr II . . . . . . . . . . . . . . . . . . |----------------------------------------------------------| |----------------------------------------------------------| |-------------------------------------------------------9--| |---6--5--------------------------------------5-6-5--3--9--| |---6--5--------------------------------------5/6\5--3--7--| |---4--3--3-3-3-3-3-3-3-3-3-3-3-3-3-3-3-3-3-3-3/4\3--1--0--|

variations - click chord images
Transpose chords:
Tuning:
Cool service:
View: Size:
A  A  A
Rating:
Layout:
  • Currently 0/5 Stars.
  • 1
  • 2
  • 3
  • 4
  • 5
 
Accuracy:
  • Currently 3/5 Stars.
  • 1
  • 2
  • 3
  • 4
  • 5
 
click stars to rate
Chordie recommends:
Learn to play this song & others via video guitar lessons at JamPlay.com
Songbook:
Login to add this song to your songbook
Support the artist
Preview/buy this song
MSN Music
Why this non-profit ad?

 
login to add comments/video/corrections