Chordie logo

Vacant Planets    Death



D E A T H - V A C A N T  P L A N E T S
                         From the Album HUMAN
                     Copyright 1991 RELATIVITY

                        Version 2.0 - JAN '02

Transcribed by: Mike Reeves
Version 2.0 by: death8699

For Questions, Comments, Newest Version, or Corrections contact
 death8699: archenemies@aol.com

Check Out Death8699.com, With More Transcriptions On It:
 http://www.death8699.com

.  - palm mute                  /  - slide up to
\  - slide down to              ~  - vibrato
h  - hammer on                  b  - bend
p  - pull off                   Suffixes for bend
ph - pinch harmonic             f - full bend    h - half bend
*  - see comment                r - release      t - tap bend
X  - percussion mute            ~ - vibrato bend
@  - slight palm mute           () - ghost note, sustained note

Tune Gtr to D

 V A C A N T  P L A N E T S <

Riff A
|---------------------|------------------------|
|---------------------|------------------------|
|---------------------|------------------------|Gtrs
|---------------------|------------------------|I&II
|---6-----9---7---6---|---6-----9---7---6------|
|-5---5-7---8---8---7-|-5---5-7---8---8---7----|
|
|---------------------|------------------------|
|---------------------|------------------------|
|---------------------|---8-----11----9----8---|Gtr
|---------------------|-7---7-9----10---10---9-|III
|---------------------|------------------------|
|---------------------|------------------------|
|
|---------------------|------------------------|
|---------------------|------------------------|
|---------------------|------------------------|Gtrs
|---------------------|------------------------|I&II
|---6-----9---7---6---|---6-----9---7---6------|
|-5---5-7---8---8---7-|-5---5-7---8---8---7----|
|
|
|---------------------|------------------------|
|---------------------|------------------------|
|---------------------|---8-----11----9----8---|Gtr
|---------------------|-7---7-9----10---10---9-|III
|---------------------|------------------------|
|---------------------|------------------------|


Fill 1
|-------------|
|-------------|
|-------------|Gtrs
|-------------|I&II
|-----5-8-7---|
|-5-8-------8-|


Riff B
|-----------------------------------------------------|
|-----------------------------------------------------|
|-----------------------------------------------------|Gtrs
|-----------------------------------------------------|I&II
|-----7-8---7-------7-8---8-------7-8---7-------2-3---|
|-0-0-----0---0-0-0-----0---0-0-0-----0---0-2-3-----1-|
| . .     .   . . .     .   . . .     .   . . . .   .
|
|-------------------------------------------------------|
|-------------------------------------------------------|
|-------------------------------------------------------|Gtrs
|-------------------------------------------------------|I&II
|-----7-8---7--------7-8---8-------7-8---7---4-3---6----|
|-0-0-----0---0-0-0------0---0-0-0-----0---0-----4---3~-|
  . .     .   . . .      .   . . .     .   .     .


Riff B.1
|-----------------------------------------------------|
|-----------------------------------------------------|
|-----------------------------------------------------|Gtrs
|-----------------------------------------------------|I&II
|-----7-8---7-------7-8---8-------7-8---7-------2-3---|
|-0-0-----0---0-0-0-----0---0-0-0-----0---0-2-3-----1-|
| . .     .   . . .     .   . . .     .   . . . .   .
|
|---------------------------------------------------------|
|---------------------------------------------------------|
|---------------------------------------------------------|Gtr
|--------------------------------------------------9-10---|III
|-----7-8---7-------7-8---8-------7-8---7---7-9-10------8-|
|-0-0-----0---0-0-0-----0---0-0-0-----0---0---------------|
| . .     .   . . .     .   . . .     .   .
|
|------------------------------------------------------|
|------------------------------------------------------|
|------------------------------------------------------|Gtrs
|------------------------------------------------------|I&II
|-----7-8---7--------7-8---8-------7-8---7---4-3--6----|
|-0-0-----0---0-0-0------0---0-0-0-----0---0----4---3~-|
  . .     .   . . .      .   . . .     .   .    .


Riff C
|---------------------------------------|------------------|
|---------------------------------------|------------------|
|---------------------------------------|------------------|Gtrs
|-------------------------------6-------|------------------|I&II
|----------8-7------------------4---3---|----------6-5-----|
|-55555555-----8-5-444444444444-----1---|-33333333-----6-3-|
| ........     . . ............           ........     . .
|
|C.1
|-----------------------------------------|------------------|
|-----------------------------------------|------------------|
|-----------------------------------------|------------------|Gtr
|--------------------------------7-7-8--6-|------------------| I
|----------8-7------------------5-5----4--|----------6-5-----|
|-55555555-----8-5-444444444444-------2---|-33333333-----6-3-|
| ........     . . ............             ........     . .
|
|-------------------------------------------|------------------|
|-------------------------------------------|------------------|
|-------------------------------------------|------------------|Gtrs
|-------------------------------7-----------|------------------| II
|----------8-7------------------5-----4-----|----------6-5-----|
|-55555555-----8-5-444444444444-------2-----|-33333333-----6-3-|
  ........     . . ............               ........     . .


Riff D
|-------------------|-------------------|-------------------|-------------------|
|-------------------|-------------------|-------------------|-------------------|
|-------------------|-------------------|-------------------|-------------------|Gtrs
|-------------------|-------------------|-------------------|-------------------|I&II
|-3------3------3---|-3------3------5/6-|-3------3------3---|-3------3------6\5-|
|-1-0000-1-0000-1---|-1-0000-1-0000-3/4-|-1-0000-1-0000-1---|-1-0000-1-0000-4\3-|
    ....   ....         ....   ....         ....   ....         ....   ....


Riff D 1tx


Riff E
|---------------------------------------------------------------|
|---------------------------------------------------------------|
|---------------------------------------------------------------|
|-----------------8-8-8-8-------------------------8-8-8-8-------|
|---------7-7-7-7---------7-7-7-7---------7-7-7-7---------6h7---|
|-5-5-5-5-------------------------4-4-4-4---------------------4-|
| . . . . . . . . . . . . . . . . . . . . . . . . . . . .
|
|E.1
|-----------------------------------------------------------------|
|-----------------------------------------------------------------|
|-----------------------------------------------------------------|
|-----------------8-8-8-8-------------------------8-8-8-8---------|
|---------7-7-7-7---------7-7-7-7---------7-7-7-7---------5h6-----|
|-5-5-5-5-------------------------4-4-4-4---------------------4-2-|
  . . . . . . . . . . . . . . . . . . . . . . . . . . . .     . .


Riff F                           2tx
|-----------------------------------|
|-----------------------------------|
|-----------------------------------|
|-----------------------------------|
|---33-4---4-3---3---33-4---3-2---2-|
|-0------0-----2---0------0-----0---|
  . .. . . . . . . . .. . . . . . .


Riff E + E.1
Riff F 2tx


Tapping:
|-------------------------------------------------|
|-------------------------------------------------|
|--------------------------------------7----------|Gtrs
|-5-----------------------------------------------|I&II
|--------------------------------------5----------|
|-3-----------------------------------------------|
|
| t p  h  p   t p  h  p   t p  h  p   t p  h  p

|-------------------------------------------------|
|-------------------------------------------------|
|-19-12-15-0--19-12-15-0--19-12-15-0--20-12-15-0--|Gtr
|-------------------------------------------------|III
|-------------------------------------------------|
|-------------------------------------------------|
|
|-------------------------------------------------|
|-------------------------------------------------|
|--------------------------------------7----------|Gtrs
|-5-----------------------------------------------|I&II
|--------------------------------------5----------|
|-3-----------------------------------------------|
|
| t p  h  p   t p  h  p   t p  h  p   t p  h  p
|-------------------------------------------------|
|-------------------------------------------------|
|-19-12-15-0--19-12-15-0--19-12-15-0--20-12-15-0--|Gtr
|-------------------------------------------------|III
|-------------------------------------------------|
|-------------------------------------------------|
|
|-------------------------------------------------|
|-------------------------------------------------|
|--------------------------------------8----------|Gtrs
|-8\6---------------------------------------------|I&II
|-8\6----------------------------------6----------|
|-------------------------------------------------|
|
| t p  h  p   t p  h  p   t p  h  p   t p  h  p
|-------------------------------------------------|
|-------------------------------------------------|
|-------------------------------------------------|
|-20-11-14-0--20-11-14-0--20-11-14-0--21-11-14-0--|Gtr
|-------------------------------------------------|III
|-------------------------------------------------|
|
|
|-------------------------------------------------|
|-------------------------------------------------|
|--------------------------------------8----------|Gtrs
|-6-----------------------------------------------|I&II
|--------------------------------------6----------|
|-4-----------------------------------------------|
|
| t p  h  p   t p  h  p   t p  h  p   t p  h  p
|-------------------------------------------------|
|-------------------------------------------------|
|-------------------------------------------------|Gtr
|-20-11-14-0--20-11-14-0--20-11-14-0--21-11-14-0--|III
|-------------------------------------------------|
|-------------------------------------------------|
|
| t p  h  p   t p  h  p   t p  h  p   t p  h  p
|-------------------------------------------------|
|-------------------------------------------------|
|-19-12-15-0--19-12-15-0--19-12-15-0--20-12-15-0--|Gtrs
|-------------------------------------------------|I&II
|-------------------------------------------------|
|-------------------------------------------------|
|
| t p  h  p   t p  h  p   t p  h  p   t p  h  p
|-------------------------------------------------|
|-------------------------------------------------|
|-19-12-15-0--19-12-15-0--19-12-15-0--20-12-15-0--|Gtrs
|-------------------------------------------------|I&II
|-------------------------------------------------|
|-------------------------------------------------|
|
| t p  h  p   t p  h  p   t p  h  p   t p  h  p
|-------------------------------------------------|
|-------------------------------------------------|
|-------------------------------------------------|
|-20-11-14-0--20-11-14-0--20-11-14-0--21-11-14-0--|Gtrs
|-------------------------------------------------|I&II
|-------------------------------------------------|
|
| t p  h  p   t p  h  p   t p  h  p   t p  h  p
|-------------------------------------------------|
|-------------------------------------------------|
|-------------------------------------------------|
|-20-11-14-0--20-11-14-0--20-11-14-0--21-11-14-0--|Gtrs
|-------------------------------------------------|I&II
|-------------------------------------------------|
|-------------------------------------------------|
|
| t p  h  p   t p  h  p
|--------------------------|---------|
|--------------------------|---------|
|--------------------------|---------|Gtrs
|-20-11-14-0--20-11-14-0---|-----3---|I&II
|--------------------------|-4---1---|
|--------------------------|-2-------|


Riff G                               G.1
|------------------------------------|-------------------------------------------|
|------------------------------------|-------------------------------------------|
|------------------------------------|-------------------------------------------|Gtrs
|---------------------------55555555-|-------------------------------------------|I&II
|----------7777777733333333----------|----------77777777333333335555555533332222-|
|-55555555---------------------------|-55555555----------------------------------|
  ........ ................ ........   ........ ................................


Riff G + G.1


Riff H                               H.1
|------------------------------------|---------------------------|
|------------------------------------|---------------------------|
|------------------------------------|---------------------------|Gtrs
|------------------------------------|---------------------------|I&II
|----------7777777766666666----------|----------7777777766666666-|
|-44444444------------------33333333-|-44444444------------------|
  ........ ................ ........   ........ ................


Riff G + G.1
Fill 1
Riff B 1tx
Riff C 2tx
Riff C.1 2tx
Riff D 1tx
Riff E 2tx
Riff F 2tx

Check Out Death8699.com, With More Transcriptions On It:


Important: The song above is NOT stored on the Chordie server. The original song is hosted at www.xguitar.com. Chordie works as a search engine and provides on-the-fly formatting. Chordie does not index songs against artists/composers will. To remove this song please click here.

This song is displayed as text-only. Transposing and tuning is only available for chordpro-songs.

Login - add to songbook

Rating click stars to rate

Layout
Accuracy

SHARE PAGE  

You need to log in to post comments