Guitar Tabs, Chords and Lyrics


Trapped In A Corner    Death



DEATH - TRAPPED IN A CORNER
(Individual Thought Patterns,

Key
= after note = vibrato
\ = slide down
/ = slide up
+ = tap
h = hammer
p = pull
n = natural harmonic
s = pinching harmonic (squeal)
* = tremolo pick
t = trill

n number above the tab = play the first part then the first finishing part
			 play the first part a second time and then play the second finishing part
			 etc.

Tune Down 1 Step

Riff 1

D --------------------------------------------------------------------
A --------------------------------------------------------------------
F ---10-11---10----10-11-10------13-14----13-----13-14----13-14-13----
C -8-10-11-8-10--8-10-11-10-8-11-13-14-11-13--11-13-14-11-13-14-13-11-
G -8-------8-----8----------8-11-------11-----11-------11----------11-
D --------------------------------------------------------------------

D -------------------------------------------------------------------------------------
A -------------------------------------------------------------------------------------
F ----12-13----12-13----12-13----12-13----12----15-16----15-16----15-16----15-16----15-
C -10-12-13-10-12-13-10-12-13-10-12-13-10-12-13-15-16-13-15-16-13-15-16-13-15-16-13-15-
G -10-------10-------10-------10-------10----13-------13-------13-------13-------13----
D -------------------------------------------------------------------------------------

Riff 2

D -5---------5------------5---------5---------5------------8---------8------------3---------3------------
A ---5---5-----5---5---5----5---5-----5---5-----5---5---5----8---8-----8---8---8----3---3-----3---3---3--
F -----2---------2---2--------2---------2---------2---2--------5---------5---5--------0---------0---0----
C -------------------------------------------------------------------------------------------------------
G -------------------------------------------------------------------------------------------------------
D -------------------------------------------------------------------------------------------------------

Riff 2A

D -------------------------------------------------------
A -------------------------------------------------------
F ------------------------------------------5------------
C -7--------------------------3-------------5------------
G -7--------------------------3-------------3------------
D -5--------------------------1--------------------------

Riff 2B

D -5---------5------------5---------5---------5-----------
A ---5---5-----5---5---5----5---5-----5---5-----5---5---5-
F -----2---------2---2--------2---------2---------2---2---
C --------------------------------------------------------
G --------------------------------------------------------
D --------------------------------------------------------

Riff 2C

D ----------------------------
A ----------------------------
F ----------------------------
C -7--------------------------
G -7--------------------------
D -5--------------------------

Riff 3

D -------------------------------------------------------
A -------------------------------------------------------
F -------------------------------------------------------
C -------------------------------------------------------
G -1------4------1------4-----0------3------0------3-----
D ---22-2---22-2---22-2---2-2---11-1---11-1---11-1---1-1-

Riff 4

D -------------------------------------------------------
A -------------------------------------------------------
F -2------5------4------7------5------9------7------10---
C -2------5------4------7------5------9------7------10---
G -0-00-0-3-00-0-2-00-0-5-00-0-3-00-0-7-00-0-5-00-0-8 ---
D -------------------------------------------------------

Riff 5

D ----------------------------5-----
A ----------------------5-3-5---5---
F -----24-5-4------24-5-----------5-
C ----------------------------------
G -0-0---------0-0------------------
D ----------------------------------

Riff 6

D -------------------------------------------------------------
A -------------------------------------------------------------
F -------------------------------------------------------------
C --------7-------------7---7-8---------7-------------7---8-7--
G -6-------------6----------7-8--6-------------6----------8-7--
D ---65-6---5------65-6---5-5-6----65-6---5------65-6---5-6-5--

Riff 7

D ----------------------------------------------------------------------------------
A ----------------------------------------------------------------------------------
F ----------------------------------------------------------------------------------
C -------7----8-------7----8-------5----7--------7----8-------7----8-------7----10--
G -00-00---00---00-00---00---00-00---00----00-00---00---00-00---00---00-00---00-----
D ----------------------------------------------------------------------------------

Riff 7A

D ----------------------------------------------------------------------------------
A ----------------------------------------------------------------------------------
F ----------------------------------------------------------------------------------
C -------7----8-------7----8-------5----7--------7----8-------7----8-------7----10--
G -66-66---66---66-66---66---66-66---66----66-66---66---66-66---66---66-66---66-----
D ----------------------------------------------------------------------------------

Riff 8

D -----------------------------------------------------------------
A -----------------------------------------------------------------
F -----------------------------------------------------------------
C -----------------------------------------------------------------
G -----------------888-888-888-888-----------------777-777-777-777-
D -555-555-555-555-----------------888-888-888-888-----------------

D -----------------------------------------------------------------
A -----------------------------------------------------------------
F -----------------------------------------------------------------
C -----------------------------------------------------------------
G -----------------888-888-888-888-----555-777-555-----555---------
D -555-555-555-555-----------------888-------------888-----888-666-

Order

Riff 1 x 2
Riff 2/2A x 2
Riff 2B/2C x 1
Riff 3 x 2
Riff 4 x 2
Riff 3 x 2
Riff 4 x 2
Riff 5 x 6
Riff 6 x 3
Riff 7 x 2
Riff 7A x 2
Riff 7 x 2
Riff 7A x 2
Riff 8 x 2
Riff 2/2A x 2
Riff 2B/2C x 1
Riff 3 x 2
Riff 4 x 2
Riff 3 x 2
Riff 4 x 2



Important: The song above is NOT stored on the Chordie server. The original song is hosted at www.xguitar.com. Chordie works as a search engine and provides on-the-fly formatting. Chordie does not index songs against artists/composers will. To remove this song please click here.

This song is displayed as text-only. Transposing and tuning is only available for chordpro-songs.

Login - add to songbook

Rating click stars to rate

Layout
Accuracy

SHARE PAGE  




You need to log in to post comments