Chordie logo

Baptized In Blood    Death



DEATH
Baptized in Blood
Album: Scream Bloody Gore
1987 Century Media Records


tabbed by Hellspawn (effigy29@hotmail.com)


Legend:

h        hammer-on
p        pull-off
PM |--|  palm mute
"        tremolo picking (or 32th note)
/        slide up
\        slide down
4/4      time signature
( )      tie note
x        muffled note


Timing: 4/4: ---- = 1 beat


Tune Down 1 whole step  (6:D 5:G 4:C 3:F 2:A 1:D)

                                    play 4 times                           play 8 times
           Riff A                   (end Riff A)  Riff B                   (end Riff B)
|---------|------------------|------------------||------------------|------------------|
|---------|------------------|------------------||------------------|------------------|
|---------|*-----------------|-----------------*||*-----------------|-----------------*|
|-xpick\\-|*-2-----------3-3-|-2---------------*||*-----------------|--------------h--*|
|-xslide\-|--2-----------3-3-|-2-----------2-3--||------------------|-------------6-7--|
|---------|--0-----------1-1-|-0-------0-1------||--4444444444445555|-444444444444-----|

 Riff C                                                        (end Riff C)
|------------------|------------------|-----------------|------------------|
|------------------|------------------|-----------------|------------------|
|*-6-----------6---|-7------/11-------|-----------------|-----------------*|
|*-6-----------6---|-7------/11---7---|-----------------|-----------------*|
|--4-----------4---|-5------/9----7---|-----------------|------------------|
|------------------|--------------5---|-3333333333333333|-2222222222222222-|

Faster                                                        play 6 times
 Riff D                                                       (end Riff D)
|------------------|-----------------|-----------------|------------------|
|------------------|-----------------|-----------------|------------------|
|*-----------------|-----------------|-----------------|-----------------*|
|*--------h---h----|--------h---h----|--------h---h----|--------h--------*|
|--------3-4-4-5---|-------3-4-4-5---|-------3-4-4-5---|-------4-5---4----|
|--222222----------|-222222----------|-222222----------|-222222-----------|

play Riff A

 Riff E                 (end Riff E)
|-----------------|-----------------|
|-----------------|-----------------|
|-----------------|-----------------|
|-----------------|-----------------|
|-111111111111----|-----------------|
|-------------2222|-1111111111111111|

play Riff A
play Riff E
play Riff A
play Riff E
play Riff A
play Riff E
play Riff B 8 times
play Riff C 2 times
play Riff D 6 times
play Riff A
play Riff E
play Riff A
play Riff E
play Riff A
play Riff E
play Riff A
play Riff E
play Riff B 4 times

Slower                      play 5 times
|------------------|--------------------|
|------------------|--------------------|
|*-----------------|-------------------*| note: Gtr 2 is out
|*-----------------|-------------------*|       at the 1st time
|--6666666666666666|---------9999101055-|
|------------------|-77776666-----------|

Faster again
(under Solo)             play 4 times                           play 4 times
|------------------|------------------|------------------|------------------|
|------------------|------------------|------------------|------------------|
|*-----------------|-----------------*|*-----------------|-----------------*|
|*-----------------|--------------h--*|*-----------------|--------------h--*|
|------------------|-------------5-6--|------------------|-------------4-5--|
|--3333333333334444|-333333333333-----|--2222222222223333|-222222222222-----|

play Riff A

play Riff E
play Riff A
play Riff E
play Riff A
play Riff E
play Riff A
play Riff E
play Riff B 4 times

  Gtr 1 (sounds somthing like that)                           play 3 times
|-----------------|-----------------|------------------|------------------|
|-----------------|-----------------|------------------|------------------|
|-----------------|-----------------|*-----------------|-----------------*|
|-----------------|-----------------|*-----------------|-----------------*|
|-6666766676667696|-6666666644446444|--6666766676667696|-6666666644446444-|
|-----------------|-----------------|------------------|------------------|
|                                                                         |
| Gtr 2                                                                   |
|-----------------|-----------------|------------------|------------------|
|-----------------|-----------------|------------------|------------------|
|-----------------|-----------------|*-8---------------|-8-------6-------*|
|-----------------|-----------------|*-8---------------|-8-------6-------*|
|-----------------|-----------------|--6---------------|-6-------4--------|
|-----------------|-----------------|------------------|------------------|

play Riff A 4 times

then:
|-----------------|
|-----------------|
|-----------------|
|-2---------------|
|-2---------------|


Important: The song above is NOT stored on the Chordie server. The original song is hosted at www.xguitar.com. Chordie works as a search engine and provides on-the-fly formatting. Chordie does not index songs against artists/composers will. To remove this song please click here.

This song is displayed as text-only. Transposing and tuning is only available for chordpro-songs.

Login - add to songbook

Rating click stars to rate

Layout
Accuracy

SHARE PAGE  

You need to log in to post comments