Guitar Tabs, Chords and Lyrics


1,000 Eyes   Death

Tune Gtr to D [D,G,C,F,A,D]

--1 0 0 0 E Y E S--

[Riff A] 
[---------------------------------|--------------------------------]
[---------------------------------|--------------------------------]
[*---------9----------------------|---------7---------------------*]Gtrs
[*---------9----------------------|---------7---------------------*]I&II
[----------7---10-----------------|---------5---8------------------]
[--0-0-0-0-^----^-8-8-8-8-8-8-0-0-|-0-0-0-0-^---^-6-6-6-6-6-6-0-0--]

. . . . . . . . . . . . . . . . . . . . . . . .

[---------------------------------|--------------------------------]
[---------------------------------|--------------------------------]
[*---------9----------------------|---------7---------------------*]Gtrs
[*---------9----------------------|---------7---------------------*]I&II
[----------7---10-----------------|---------5---8------------------]
[--0-0-0-0-^----^-8-8-8-8-8-8-5-5-|-5-5-5-5-^---^-6-6-6-6-6-6-0-0--]

. . . . . . . . . . . . . . . . . . . . . . . .

[---------------------------------|--------------------------------]
[---------------------------------|--------------------------------]
[*---------9----------------------|---------9---------------------*]Gtr
[*---------9----------------------|---------9---------------------*] I
[----------7---6------------------|---------7--10------------------]
[--0-0-0-0-^---^--4-4-4-4-4-4-0-0-|-0-0-0-0-^---^-8-8-8-8-8-8-0-0--]

. . . . . . . . . . . . . . . . . . . . . . . .

[---------------------------------|--------------------------------]
[---------------------------------|--------------------------------]
[*---------9----------------------|---------9---------------------*]Gtr
[*---------9----------------------|---------9---------------------*] II
[----------7---10-5-5-5-5-5-5-----|---------7--10------------------]
[--0-0-0-0-^--- ^-------------0-0-|-0-0-0-0-^---^-8-8-8-8-8-8-0-0--]

. . . . . . . . . . . . . . . . . . . . . . . .

[---------------------------------|--------------------------------]
[---------------------------------|--------------------------------]
[*---------9----------------------|---------9---------------------*]Gtr
[*---------9----------------------|---------9---------------------*] I
[----------7---6------------------|---------7---8------------------]
[--0-0-0-0-^---^--4-4-4-4-4-4-0-0-|-0-0-0-0-^---^-6-6-6-6-6-6-6-6--]

. . . . . . . . . . . . . . . . . . . . . . . .

[---------------------------------|--------------------------------]
[---------------------------------|--------------------------------]
[*---------9----------------------|---------9---------------------*]Gtr
[*---------9----------------------|---------9---------------------*] II
[----------7--10--5-5-5-5-5-5-----|---------7---8-7-7-7-7-7-7-7-7--]
[--0-0-0-0-^--^---------------0-0-|-0-0-0-0-^---^------------------]

. . . . . . . . . . . . . . . . . . . . . . . .


[Riff B] 
[--------------------------------|------------------------------]
[--------------------------------|------------------------------]
[*-------------------------------|-----------------------------*]Gtrs
[*------9--------10---10-9----12-|-----9--------10--10-9-------*]I&II
[--0000-7---0000-7----7--7-10-10-|-0-0-7---0000-7---7--7-10-12--]
[-------^--------^----^--^-8--^--|-----^--------^---^--^-8--10--]

.... .... ^ . . .... ^ ^

[B.1] 
[--------------------------------|------------------------------]
[--------------------------------|------------------------------]
[*-------------------------------|-----------------------------*]Gtrs
[*------9--------10---10-9----12-|-----9--------10---10-9------*]I&II
[--0000-7---0000-7----7--7-10-10-|-0-0-7---0000-7----7--7-10----]
[-------^--------^----^--^-8---^-|-----^--------^----^--^-8-----]

.... .... ^ . . .... *
                                                       [Pause] 

Riff B [1tx]

[Riff B.2] 
[--------------------------------|---------------------------------]
[--------------------------------|---------------------------------]
[*-------------------------------|--------------------------------*]Gtrs
[*------9--------10---10-9----12-|-----9--------10---10-9---------*]I&II
[--0000-7---0000-7----7--7-10-10-|-0-0-7---0000-7----7--7-10-------]
[-------^--------^----^--^-8---^-|-----^--------^----^--^-8--10~~~~]

   ....     ....           ^       . .     ....           ^ [a.b.]


[Riff C] 
[--------------------------------------|-----------------------------------]
[--------------------------------------|-----------------------------------]
[*-------------------------------------|----------------------------------*]Gtrs
[*-------------------------------------|----------------------------------*]I&II
[--5--2---------------3--------3-2---5-|-----------------------------------]
[--3--0-000000000000--1-0-0000-----3---|-44444444444444441111111111111111--]

^ . ............ ^ . .... ................................
|__________| |______________||______________|
           --12--                           --16th's--      --16th's--


Riff C [3tx]

[Riff D] 
[-------------------------------------------------------]
[-------------------------------------------------------]
[*-----------------------------------------------------*]Gtrs
[*-2---------------------------------------------------*]I&II
[--2----------------------------------------------------]
[--0----------------------------------------------------]

^
t p p h p h t p p h p h t p p h p h t p p h p h
[-------------------------------------------------------]
[--12_8_5_8_5_8-12_8_5_8_5_8-12_8_5_8_5_8-12_8_5_8_5_8--]
[*--^------------^------------^------------^-----------*]Gtr
[*-----------------------------------------------------*]III
[-------------------------------------------------------]
[-------------------------------------------------------]
[-------------------------------------------------------]
[-------------------------------------------------------]
[*-6---------------------------------------------------*]Gtrs
[*-6---------------------------------------------------*]I&II
[--4----------------------------------------------------]
[--^----------------------------------------------------]


t p p h p h t p p h p h t p p h p h t p p h p h
[-------------------------------------------------------]
[-------------------------------------------------------]

[*-13_9_6_9_6_9-13_9_6_9_6_9-13_9_6_9_6_9-13_9_6_9_6_9-*]Gtr
[*--^------------^------------^------------^-----------*]III
[-------------------------------------------------------]
[-------------------------------------------------------]
[-------------------------------------------------------]
[-------------------------------------------------------]
[*-----------------------------------------------------*]Gtrs
[*-6---------------------------------------------------*]I&II
[--6----------------------------------------------------]
[--4----------------------------------------------------]

^
t p p h p h t p p h p h t p p h p h t p p h p h
[--11_7_4_7_4_7-11_7_4_7_4_7-11_7_4_7_4_7-11_7_4_7_4_7--]
[---^------------^------------^------------^------------]
[*-----------------------------------------------------*]Gtr
[*-----------------------------------------------------*]III
[-------------------------------------------------------]
[-------------------------------------------------------]
[-------------------------------------------------------]
[-------------------------------------------------------]
[*-8---------------------------------------------------*]Gtrs
[*-8---------------------------------------------------*]I&II
[--6----------------------------------------------------]
[--6----------------------------------------------------]

^
t p p h p h t p p h p h t p p h p h t p p h p h
[-------------------------------------------------------]
[--11_7_4_7_4_7-11_7_4_7_4_7-11_7_4_7_4_7-11_7_4_7_4_7--]
[*--^------------^------------^------------^-----------*]Gtr
[*-----------------------------------------------------*]III
[-------------------------------------------------------]
[-------------------------------------------------------]



[Riff E] 
[--------------------------------------|------------------------------------]
[--------------------------------------|------------------------------------]
[*-------------------------------------|-----------------------------------*]Gtrs
[*---------------------10-9----12------|-----------------------------------*]I&II
[---------------------------10----9-10~|---------------------10-9----12-----]
[--0-0-0-0-0-0-0-0-0-0-----------------|-8-8-8-8-8-8-8-8-8-8------10----10~~]

. . . . . . . . . . . . . . . . . . . .


Riff E [3tx]
[Riff F] 
[-----------------------------------|-----------------------------------]
[-----------------------------------|-----------------------------------]
[*----------------------------------|----------------------------------*]Gtrs
[*-2222222222222222-----------------|-33333333333333333333333333333333-*]I&II
[--00000000000000002222222222222222-|-11111111111111111111111111111111--]
[------------------0000000000000000-|-----------------------------------]

................................ ................................
|______________||______________| |______________________________|
       --16's--        --16's--                    --32--
[-----------------------------------|-----------------------------------]
[-----------------------------------|-----------------------------------]
[*----------------------------------|----------------------------------*]Gtrs
[*-22222222222222222222222222222222-|----------------------------------*]I&II
[--00000000000000000000000000000000-|-22222222222222222222222222222222--]
[-----------------------------------|-00000000000000000000000000000000--]

................................ ................................
|______________||______________| |______________________________|
       --16's--        --16's--                    --32--
[-----------------------------------|-----------------------------------]
[--10------13------12------13-------|---------12------13----------------]
[*--^-------^-------^-------^-------|-9--------^-------^------12-------*]Gtr
[*----------------------------------|-^------------------------^-------*]III
[-----------------------------------|-----------------------------------]
[-----------------------------------|-----------------------------------]
[-----------------------------------|-----------------------------------]
[-----------------------------------|-----------------------------------]
[*----------------------------------|----------------------------------*]Gtrs
[*----------------------------------|----------------------------------*]I&II
[--33333333333333333333333333333333-|-55555555555555555555555555555555--]
[--11111111111111111111111111111111-|-33333333333333333333333333333333--]

................................ ................................
|______________________________| |______________________________|
                --32--                             --32--
[-----------------------------------|---------10------------------------]
[----------13------12------13-------|----------^------12------13--------]
[*-10-------^-------^-------^-------|-12---------------^-------^-------*]Gtr
[*--^-------------------------------|--^-------------------------------*]III
[-----------------------------------|-----------------------------------]
[-----------------------------------|-----------------------------------]
[-----------------------------------|-----------------------------------]
[-----------------------------------|-----------------------------------]
[*-2--------------------------------|----------------------------------*]Gtrs
[*-2--------------------------------|-2--------------------------------*]I&II
[--0--------------------------------|-2---------------------------------]
[--^--------------------------------|-0---------------------------------]

^
[-----------------------------------|-----------------------------------]
[-----------------------------------|-----------------------------------]
[*----------------------------------|----------------------------------*]Gtr
[*---------9-------10------9--------|---------9-------10---------------*]III
[--7-------^--------^------^--------|-10------^--------^------8---------]
[--^--------------------------------|--^----------------------^---------]
[-----------------------------------|-----------------------------------]
[----------12------13------12-------|---------12------13----------------]
[*-9--------^-------^-------^-------|-12-------^-------^------10-------*]Gtr
[*-^--------------------------------|--^-----------------------^-------*] IV
[-----------------------------------|-----------------------------------]
[-----------------------------------|-----------------------------------]
[-----------------------------------|-----------------------------------]
[-----------------------------------|-----------------------------------]
[*----------------------------------|----------------------------------*]Gtrs
[*-3--------------------------------|-5--------------------------------*]I&II
[--3--------------------------------|-5---------------------------------]
[--1--------------------------------|-3---------------------------------]

^ ^
[-----------------------------------|-----------------------------------]
[-----------------------------------|-----------------------------------]
[*----------------------------------|---------7------------------------*]Gtr
[*---------9-------10------9--------|---------^-------9-------10-------*]III
[--7-------^--------^------^--------|-10--------------^--------^--------]
[--^--------------------------------|--^--------------------------------]
[-----------------------------------|---------10------------------------]
[----------12------13------12-------|----------^------12------13--------]
[*-9--------^-------^-------^-------|-12---------------^-------^-------*]Gtr
[*-^--------------------------------|--^-------------------------------*] IV
[-----------------------------------|-----------------------------------]
[-----------------------------------|-----------------------------------]



[Riff G] 
[---------------------------------|-----------------------------------------]
[---------------------------------|-----------------------------------------]
[*-------------------------10-----|-----------------------------10---------*]
[*-----------------8-7-----10-----|---------------------8-7-----10---------*]Gtrs
[--7-7-7-7-7-7-7-7-----8-7-8------|-7-7-7-7-7-7-7-7-7-7-----8-7-8--7_8_7----]I&II
[--0-0-0-0-0-0-0-0---------^------|-0-0-0-0-0-0-0-0-0-0---------^---h-p--8~~]

   . . . . . . . . . . . .          . . . . . . . . . . . . . .        [a.b.]

[---------------------------------|-----------------------------------------]
[---------------------------------|-----------------------------------------]
[*---------------------10---------|-----------------------------10---------*]Gtrs
[*-------------8-7-----10---------|---------------------8-7-----10-7-------*]I&II
[--7-7-7-7-7-7-----8-7-8----------|-7-7-7-7-7-7-7-7-7-7-----8-7-8--7---8~~~~]
[--0-0-0-0-0-0---------^----------|-0-0-0-0-0-0-0-0-0-0---------^--5--------]

   . . . . . . . . . .              . . . . . . . . . . . . . .    ^ [a.b.]


Riff G [1tx]
[Riff B](let ring)
[---------0-------------||0--------|---------------------------------]
[------------0----------||0--------|---------------------------------]
[*--------------5-------||5--------|-7-------------9/10-9-----------*]Gtrs
[*-7---------------7----||7--------|-7-------------9/10-9-----------*]I&II
[--7------------------8-||8--------|-5-------------7/8--7------------]
[--5----------------------^--------|-^------------------^------------]

^
[---------0-------------||0--------|---------------------------------]
[------------0----------||0--------|---------------------------------]
[*--------------5-------||5--------|-7-------------9/10-7--7/12-12--*]Gtrs
[*-7---------------7----||7--------|-7-------------9/10-7--7/12-12--*]I&II
[--7------------------8-||8--------|-5-------------7/8--5--5/10-10---]
[--5----------------------^--------|-^------------------^--------^---]

^

Riff H [1tx]

[Solo] 
[-13-12-10----------------------------------------------]
[----------13-12-10-------------------------------------]
[*------------------12-10-12-10-9----9-----------------*]Gtr
[*--------------------------------12---12-10----9------*]III
[--------------------------------------------12---------]
[-------------------------------------------------------]
[-------12---13--13_17---13---12------------------------]
[-/15--------------h---------------15---13---10---12----]
[*sl---------------------------------------------------*]Gtr
[*-----------------------------------------------------*]III
[-------------------------------------------------------]
[-------------------------------------------------------]
[---------------------8-7----------------8-7------13-12-10-------------]
[-------------------------10-8---------------10-8----------13-12-10-12-]
[*--------7-10-9-7-------------10-9-7---------------------------------*]Gtr
[*-7-9-10----------10-----------------10------------------------------*]III
[----------------------------------------------------------------------]
[----------------------------------------------------------------------]
[-----------------10---12---13--------12-----------------]
[--10---12---13------------------12--------12---13-------]
[*------------------------------------------------------*]Gtr
[*------------------------------------------------------*]III
[--------------------------------------------------------]
[--------------------------------------------------------]


  [tremolo picking not every note is written] 
[--12-12-12-13-12-13-12-10-------10-10-12-10-12-10--------------------------]
[--------------------------13-12-------------------13-12-10-----------------]
[*---------------------------------------------------------10-9-7_9_7------*]Gtr
[*---------------------------------------------------------------h-p--10-9-*]III
[---------------------------------------------------------------------------]
[---------------------------------------------------------------------------]


[sweep] 
[------12-13-10_12_10-------------------------------------------------]
[----12--------h--p---13-12-10-12_10----------------------------------]
[*-12----------------------------p---12-10-12-10-9----10_9-------9---*]Gtr
[*-------------------------------------------------12---p--12_10-----*]III
[------------------------------------------------------------p--------]
[---------------------------------------------------------------------]
[-----------------------------------------------------------------]
[-----------------------------------------------------------------]
[*---------------------------------------------------------------*]Gtr
[*-7/10-10-10-9---9-9/12-12-12-10---10-10/14-14-14-15-14---14-14-*]III
[---sl---------------sl------------------sl-----------------------]
[-----------------------------------------------------------------]



Riff B   [1tx]
Riff B.1 [1tx]
Riff B   [1tx]
Riff B.2 [1tx]
Riff C   [4tx]
Riff D   [1tx]
Riff E   [4tx]
Riff F   [.5x]
[rit   ilowsp;  .      .      .             .]                 [Fade Out] 
[-----------------------------------|-----------------------------]
[-----------------------------------|-----------------------------]
[*-2------7------4------5-----------|-2"-------------------------*]Gtrs
[*-2------7------4------5-----------|-2"-------------------------*]I&II
[--0------5------2------3-----------|-0"--------------------------]
[--^------^------^------^-----------|-^---------------------------]
[-----------------------------------|-----------------------------]
[-----------------------------------|-----------------------------]
[*----------------------------------|----------------------------*]Gtr
[*--------12-----9------10----------|-7--------------------------*]III
[--10------^-----^-------^----------|-^---------------------------]
[---^-------------------------------|-----------------------------]
[---------10------------------------|-----------------------------]
[----------^-----12-----13----------|-10--------------------------]
[*-12-------------^------^----------|--^-------------------------*]Gtr
[*--^-------------------------------|----------------------------*] IV
[-----------------------------------|-----------------------------]
[-----------------------------------|-----------------------------]



Check Out Death8699.com, With More Transcriptions On It:
http://www.death8699.com