Guitar Tabs, Chords and Lyrics


Army Corps of Architects    Death Cab For Cutie



Death Cab for Cutie - The Army Corps of Architects
as tabbed by kyle c.

part 1

e|------0---------------------------------------------------------
b|----------------------------------------------------------------
g|----------------------------------------------------------------
d|-0h2---------------------------------------2/3\2--------2/3\2---
a|-3------------------2--------2-3---------3-----------3----------
e|-----------------3--------3-----------1-----------1-------------

part 2
C G (variation whose name i dont know)
e|--------0-------------------------------------------------------
b|-----1----1----------------3------------------------------------
g|------0-----0----------0-----0----------------------------------
d|---2----------2----------0-----0------------2/3\2-------2/3\2---
a|-3-------------------2-----------2--------3-----------3---------
e|-------------------3--------------------1-----------1-----------

lead guitar

e|----------------------------------------------------------------
b|--5---5---5---5----3---3---3---3--------------------------------
g|----5---5---5---5----5---5---5---5------------------------------
d|----------------------------------------------------------------
a|----------------------------------------------------------------
e|----------------------------------------------------------------

towards the end, the number of times the plays each of these little lead 
things varies (i.e. he does the 3-5 thing a lot more, etc.) so listen to the 
song to get it right.

i tabbed this from memory, meaning i didnt have my guitar with me when i 
wrote it out, so if you notice any mistakes i made, email me at 
antikardinil@hotmail.com.



Important: The song above is NOT stored on the Chordie server. The original song is hosted at www.xguitar.com. Chordie works as a search engine and provides on-the-fly formatting. Chordie does not index songs against artists'/composers' will. To remove this song please click here.

This song is displayed as text-only. Transposing and tuning is only available for chordpro-songs.

Login - add to songbook

Rating click stars to rate

Layout
Accuracy

SHARE PAGE  




You need to log in to post comments