Guitar Tabs, Chords and Lyrics


Razzle Dazzle   Deep Purple










Author/Artist: Deep Purple
Title: Razzle Dazzle
Album: Bananas
Transcribed by: Zsolt Szabó
Email: haverock@soldier.hu

Intro

-11-11-11-11--11--11----|-|
-10-10-10-10--10--10----|-|
--8--8--8--8---8---8----|-|
------------------------|-|
------------------------|-|
------------------------|-|

Main riff
----------------------------------------|------------
----------------------------------------|------------
----------------------------------------|------------
----------------------------------------|------------
--------0--------0---------0--2-0---0---|-----0-2-3--
-0--2-3----0-2-3----0--2-3--------2-----|-2-3--------

Verses (i couldn’t catch the strumming but i think this chords are used)
-----|-----|
-----|-----|
-5---|--3--|
-5---|--3--|
-3---|--1--|
-----|-----|

Piano bridge
-----------------------------|-|
-----------------------------|-|
-----------------------------|-|
------------------------2--4-|-|
-2-------2-------2---5-------|-|
---0-2-3---0-2-3---0---------|-|

This song is from the newest Deep Purple album.I haven’t found any tabs yet so
I tried tab this this one.I know it’s no perfect.If anyone has new Deep Purple please send a mail.
I could not tab out things so you have to improvise or be a better tabber J



Important: The song above is NOT stored on the Chordie server. The original song is hosted at www.xguitar.com. Chordie works as a search engine and provides on-the-fly formatting. Chordie does not index songs against artists'/composers' will. To remove this song please click here.

This song is displayed as text-only. Transposing and tuning is only available for chordpro-songs.

Login - add to songbook

Rating click stars to rate

Layout
Accuracy

SHARE PAGE  




You need to log in to post comments