Hysteria

Def Leppard

   -------------------------------------------------------------------

-------------------------------------------------------------------
----------0-------0--------0--------------0---------------0--------
-----4-------4-------4-------4---------4-----4---------4-----4-----
--5----5-------5--------5-------5----5---------5-----5----------5--
-----------------------------------3--------------3----------------
-------------------------------------------------------------------------
-------------------------------------------------------------------------
------------0-----------------0-----------------0--------0------0--------
--------4-------4----------4-----4--------4--------4-------4-------4-----
-----2-------------2----5-----------5--5-----5--------5------5--------5--
--0------------------3---------------------------------------------------
---"5"vvvvvvvvvvvvv-----------------------------------------------------
---"5"vvvvvvvvvvvvv-----------------------------------------------------
-----------------------"7"vvvvvvvvv---"7"vvvvvvvvv------9----9--7----7--
-----------------------"7"vvvvvvvvv---"7"vvvvvvvvv---7-------------7----
------------------------------------------------------------------------
------------------------------------------------------------------------
--------------------------------------------------------------------------
--------------------------------------------------------------------------
--------------------------------------------------------------------------
-----4------5----4-----4------4-----5--4------------4---5---4----------4--
--5-----5-----------5------5-----5--------5------5-------------5---5------
---------------------------------------------3--------------------3-------
-------------------------------------------------------------------------
-------------------------------------------------------------------------
-------------------------------------------------------------------------
--5---4------------4---5---4------------4----5----4---------4-----5---4--
---------5------2-------------2------5---------------5---5-----5---------
------------0--------------------3---------------------------------------
------------------------------------
------------------------------------
------------------------------------
------5--5---4---------5----4-------
---5--------------5-------------5---
------------------------------------

 DDsus4Cadd9
                           I gotta know tonight,
                           -----------0---------------------
                           ---------------3-----------------       <-- part A
                           -------------------0vvvvvvvvv----
                           ---------------------------------
                           ---------------------------------
                           ---------------------------------


 DDsus4G6/B
                           If your alone tonight
(part A)

D Dsus4 Cadd9 Can't stop this fellin,
(part A)

 CGDDadd9
                           Can't stop this fire.    

Riff A:
 EmC5
   --10------------10----------------10------------10-----------
   ---------8---------------8---------------8-------------8-----
   ------7-----7--------7------7--------7-------7------7-----7--
   -------------------------------------------------------------
   -------------------------------------------------------------
   -------------------------------------------------------------


 D5
   --10-----------10-------------10------------10---------------
   ---------8------------7--------------8-------------10--------
   ------7-----7------7------7-------7------7------7-------7----
   -------------------------------------------------------------
   ------------------------------------------------------------- End Riff A


repeat Riff A then;

   Riff C -------------------------------------------------------------|

 E5C5D
   --10------------10----------------10-----------10------------------
   ---------8--------------8----------------8------------8------8>10--
   ------7------7------7-------7---------7-----7------7------7--------
   -------------------------------------------------------------------
   -------------------------------------------------------------------
   -------------------------------------------------------------------


1st time: repeat first half of intro with fig below, then same as first
verse

                   ------------------------------
                   --10-----(10)/12vvvvvvvvvvvv-- <- let A ring before sliding
                   ------------------------------    top B. Do not pick B.
                   ------------------------------
                   ------------------------------
                   ------------------------------


2nd time:

   ---12\---------------------
   ---17\---------------------
   ---------------------------
   ----------------------2----
   ----------------------0----
   ---------------------------


solo;

 A5D5A5
   -------------------------------------------7>9--9--14vvvvvvv---
   ---5vvvvvvvvvvvvvvvvvvv---5>7--7vvvvvvvvv----------------------
   ---------------------------------------------------------------
   ---------------------------------------------------------------
   ---------------------------------------------------------------
   ---------------------------------------------------------------


 D5
   ----------------------7---9--0--9-----------------------10/12\10vvvvvvv----
   --12---14\--------10----------------/7>10vvvvvvvvvvv----10/12\10vvvvvvv----
   -------------9vvv----------------------------------------------------------
   ---------------------------------------------------------------------------
   ---------------------------------------------------------------------------
   ---------------------------------------------------------------------------


A5 v-- w/ harmonizer set oct.
down.
   ----0----0---10---0---0---9--0---0--12--14vvvvv-------------------------
   ----------------------------------------14vvvvv-----12/14\12/14\12vvvv--
   ------------------------------------------------------------------------
   ------------------------------------------------------------------------
   ------------------------------------------------------------------------
   ------------------------------------------------------------------------


 D5
                                                V-- harmonizer out.
   ----------------------------------------------------------12---------12--
   ----10/17vvv---14--14------------------14--14vvvv---12>14-----12>14------
   -----------------------14--14--14--14------------------------------------
   -------------------------------------------------------------------------
   -------------------------------------------------------------------------
   -------------------------------------------------------------------------
   --14vvvvv---14vvvv--15vvvvvv-----
   ---------------------------------
   ---------------------------------
   ---------------------------------
   ---------------------------------
   ---------------------------------


Go back and play chorus, playing Riff A 4 times, and end with riff C

Outro;

   ----------------------------------------------------------
   --10--------------10---10--10/12vvvv-------7\5/7vvvvvv----
   ----------------------------------------------------------
   ----------------------------------------------------------
   ----------------------------------------------------------
   ----------------------------------------------------------
   ------------------------------------------------------------------------------
   -------5vvvvvvvv------7--------------------10-----------10--10--10/12--12vvv--
   ----7---------------7---7vvvvvvvvvvv------------------------------------------
   ------------------------------------------------------------------------------
   ------------------------------------------------------------------------------
   ------------------------------------------------------------------------------
   ---------------------------------------------------------------------------
   --7/5\7vvvvvv-----------------------7----------------10-------------10>12--
   ----------------7/9vvvvvvvvvv----7------7-----9>11>9-----9>7--9--7--9------
   ---------------------------------------------------------------------------
   ---------------------------------------------------------------------------
   ---------------------------------------------------------------------------
   -------------------------------------------------------------------
   ---10---10vvvvvvv----/12vvvvvvvv------------------------12>15>12---
   ---------------------/12vvvvvvvv-------9/14vvvvvvvvvv--------------
   -------------------------------------------------------------------
   -------------------------------------------------------------------
   -------------------------------------------------------------------
   ----------------------------------------------------------------------------
   ----------------------------------------------------------------------------
   ---11\7/9vvvvv--------7--7--7vvvvvvvv-------7------7------------------------
   --------------------------------------------7--9---7--9---9>7---------------
   ----------------------------------------------------------------7>9---------
   -----------------------------------------------------------------------10---



A5 C C5 D D5 Dadd9 Dsus4 E5 Em G G6/B
variations - click chord images
Transpose chords:
Tuning:
Cool service:
View: Size:
A  A  A
Rating:
Layout:
  • Currently 2.4/5 Stars.
  • 1
  • 2
  • 3
  • 4
  • 5
 
Accuracy:
  • Currently 2.6/5 Stars.
  • 1
  • 2
  • 3
  • 4
  • 5
 
click stars to rate
Chordie recommends:
Get acoustic guitar lessons and electric guitar lessons at JamPlay.com
Songbook:
Login to add this song to your songbook
Support the artist
Preview/buy this song
MSN Music
Why this non-profit ad?

 
login to add comments/video/corrections