Guitar Tabs, Chords and Lyrics


Made to Lie   Default

E---------------------------------------------------------------------


B--------------3-3-3-------3-3-3-3-------------3-3-3------3/5/3-------


G-----2-2-2----2-2-2-------2-2-2-2----2-2-2----2-2-2------2/4/2-------

D-----2-2-2----0-0-0--0--0-0-0-0-0----2-2-2----0-0-0--0---------------
A--0--0-0-0----x-x-x--x-------------0-0-0-0----x-x-x--x---------------
E------------2-2-2-2--3----------------------2-2-2-2--3---------------
[A]It\\'[D/F#]s late a[G]gai[D]n
A D/f# G
Across the bar her night just began

[A]Her s[D/F#]earch will [G]end[D]

[A]She s[D/F#]pots her t[G]onight frien[D]d, [E]but then
Chorus:

[A]She\\'s been made to lie

She\\'[G]s out of the airwaves and[E] into the spotlight
[A]She can\\'t make it right
There\\'[F#m]s got to be some way t[F]o bring back her first sight
Verse 2:Same as 1st


She woke up alone


While he slept she took off for home


Left a note by the phone


No number or name to be shown, but then

Bridge:

[C#m]Day to n[D]ight

[C#m]Never ending f[D]ight
[B]Trapped for[D]ever al[E]one
E--------------------------
B--------------------------
G-------9--11--------------
D--7-7---------11----------
A--0-0---------------------
E--------------------------



Sh[G]e\\'s out of the airwaves[E] and into the spotlight
[A]She can\\'t make it right
There\\'[F#m]s got to be some way t[F]o bring back her first sight
Play Chorus Once:


Ending:
E----------------------------------------------
B----------------------------------------------
G-------9--11----------------------------------
D--7-7---------11--11h12p11h12p11h12p11--------
A--0-0-----------------------------------------
E----------------------------------------------


Important: The song above is NOT stored on the Chordie server. The original song is hosted at www.xguitar.com. Chordie works as a search engine and provides on-the-fly formatting. Chordie does not index songs against artists'/composers' will. To remove this song please click here.

Text color:
Chord color:
Chord grids: 
Font size:    
Page size: 

A B C#m D D/F# E F F#m G
variations - click chord images

Login - add to songbook

Transpose chords

Tuning

Rating click stars to rate

Layout
Accuracy

SHARE PAGE  




You need to log in to post comments