Chordie logo

Fireal   Deftones



Fireal
							
normal tuning

intro/verse

---------------|-------------------------------
-----------3---|---------------3-----------------
------3------3-|---------3-------3-----------------
----3--3-------|-------3---3-----------------------
---------------|-------------------------------
--3------------|-----0---------------------------
     4X

Chorus

----------------------------------------------
----------------------------------------------
-------------------|---------------------------
--5--4-4--5--4-4-4-|--5--4-4----------------------
--5--4-4--5--4-4-4-|--5--4-4--2-2-2------------------
--3--2-2--3--2-2-2-|--3--2-2--0-0-0------------------

     3X				1X
verse, chorus, then this, until the end:

----------------------------------------------
----------------------------------------------
----------------------------------------------
-8-8-8-8--8-8-8-8/-12-12-12-12--12-12-12-12-------5-8-7-7--5-5/-
-6-6-6-6--6-6-6-6/-10-10-10-10--10-10-10-10--7-7--3-6-5-5--3-3/--
---------------------------------------------5-5-------------
That1s it.  Listen for the order.  If these tabs suck mail this guy:  powerjibe@geocities.com




Important: The song above is NOT stored on the Chordie server. The original song is hosted at www.xguitar.com. Chordie works as a search engine and provides on-the-fly formatting. Chordie does not index songs against artists/composers will. To remove this song please click here.

This song is displayed as text-only. Transposing and tuning is only available for chordpro-songs.

Login - add to songbook

Rating click stars to rate

Layout
Accuracy

SHARE PAGE  

You need to log in to post comments