Guitar Tabs, Chords and Lyrics


Around The Fur   Deftones



"Around The Fur" by Deftones 
The only thing I don't know from this song 
is the little guitar break in the middle of 
the verse. Everything else is here. 

Dropped D tuning one-half step down 
  

Verse 

Gb--7-7-7-7-7--------------------------- 
Db--7-7-7-7-7----7-7-7-5-5-5-5-6-6-6-6-- 
Ab--5-5-5-5-5----5-5-5-3-3-3-3-6-6-6-6-- 
Db--0-0-0-0-0------------------6-6-6-6-- 
  

Right before the chorus, hit all your strings open. 
  

Chorus 

Gb----------------------------------------6-6--6-6-6-6-- 
Db--0--0--0-0-0-3-3-3-3--3-3-3-4-4-4--4-4-6-6--6-6-6-6-- 
Ab--0--0--0-0-0-3-3-3-3--3-3-3-4-4-4--4-4-4-4--4-4-4-4-- 
Db--0--0--0-0-0-3-3-3-3--3-3-3-4-4-4--4-4--------------- 
  

Interlude 

Db----------------4------------- 
Ab------------------6--4-5------ 
Db--0--------6---------------6-- 
  

Ending 

Gb---------------------5-5-5-5-------- 
Db---0-0-0-0-0-0-0-0-0-5-5-5-5-6-6-6-- 
Ab---0-0-0-0-0-0-0-0-0-3-3-3-3-6-6-6-- 
Db---0-0-0-0-0-0-0-0-0---------6-6-6-- 

Db--0----0-- 
Ab--0----0-- 
Db--0----0-- 



Important: The song above is NOT stored on the Chordie server. The original song is hosted at www.xguitar.com. Chordie works as a search engine and provides on-the-fly formatting. Chordie does not index songs against artists'/composers' will. To remove this song please click here.

This song is displayed as text-only. Transposing and tuning is only available for chordpro-songs.

Login - add to songbook

Rating click stars to rate

Layout
Accuracy

SHARE PAGE  




You need to log in to post comments