Guitar Tabs, Chords and Lyrics


Anniversary of an Uninteresting Event   Deftones



This is on piano but you can also do it on guitar.

E ------------------------------------------
B ------------------------------------------
G ------------------------------------------
D ---10------------10------------10-----7---
A -------10------------10------------10-----
E ------------------------------------------

E ------------------------------------------
B ------------------------------------------
G ------------------------------------------
D ---10--10---------------------------------
A ------------7---------------------7-------
E ------------------------------------------

E ------------------------------------------
B ------------------------------------------
G ---14--12--10--9--------------------------
D ------------------------------------------
A ------------------------------------------
E ------------------------------------------

E ---10--10--9------------------------------
B ------------------------------------------
G ------------------------------------------
D ------------------------------------------
A ------------------------------------------
E ------------------------------------------

E ------------------------------------------
B ------------------------------------------
G ------------------------------------------
D ---10------------10------------10-----7---
A -------10------------10------------10-----
E ------------------------------------------

E ------------------------------------------
B ------------------------------------------
G ------------------------------------------
D ---10--10---------------------------------
A ------------7---------------------7-------
E ------------------------------------------

E ------------------------------------------
B ------------------------------------------
G ------------------------------------------
D ---10------------10------------10-----7---
A -------10------------10------------10-----
E ------------------------------------------

E ------------------------------------------
B ------------------------------------------
G ------------------------------------------
D ---10--10---------------------------------
A ------------7---------------------7-------
E ------------------------------------------

E ------------------------------------------
B ------------------------------------------
G ---14--12--10--9--------------------------
D ------------------------------------------
A ------------------------------------------
E ------------------------------------------

E ---10--10--9------------------------------
B ------------------------------------------
G ------------------------------------------
D ------------------------------------------
A ------------------------------------------
E ------------------------------------------

E ------------------------------------------
B ------------------------------------------
G ---14--12--10--9--------------------------
D ------------------------------------------
A ------------------------------------------
E ------------------------------------------

E ------------------------------------------
B ------------------------------------------
G ------------------------------------------
D ---10------------10------------10-----7---
A -------10------------10------------10-----
E ------------------------------------------

E ------------------------------------------
B ------------------------------------------
G ------------------------------------------
D ---10--10---------------------------------
A ------------7-----------------------------
E ------------------------------------------

E ------------------------------------------
B ------------------------------------------
G ------------------------------------------
D ---10------------10------------10-----7---
A -------10------------10------------10-----
E ------------------------------------------

Artist: Deftones
Song Title: Anniversary of an Uninteresting Event
Album: Deftones
Tuning: G#-C#-F#-B-E-G#-C#

This song is played on piano.  I know it's not exact, but when I
play this song, I just mess around with these following riffs with
a clean sound with a bit of delay and chorus, it sounds cool.  And
you obviously you dont need a 7-string for this, but it's all good.
You can just use a 6-string tuned C#-F#-B-E-G#-C#.

x = mute string
b = bend
t = tremelo pick
/ = slide up
\ = slide down

|-------------------------------------------------------|
|-4---4---4----4-4--------------4---4---4----4-4--------|
|--3---3---3-5-------------------3---3---3-5------------|
|------------------5~--5~--5-5-------------------5~--3~-|
|-------------------------------------------------------|
|-------------------------------------------------------|
|-------------------------------------------------------|


|-------------------------------------------------------|
|-16----16----16-----13-11-9-8--8--8--8--8/-------------|
|----15----15----15----------x--x--x--x--x--------------|
|----------------------------5--5--5--5--5/-------------|
|-------------------------------------------------------|
|-------------------------------------------------------|
|-------------------------------------------------------|


|-------------------------------------------------------|
|-16----16----16-----11-9-9-8--8--8--8--8/--------------|
|----15----15----15---------x--x--x--x--x---------------|
|---------------------------5--5--5--5--5/--------------|
|-------------------------------------------------------|
|-------------------------------------------------------|
|-------------------------------------------------------|

Outro: (which is probably Frank)

|-------------------------------------------------------|
|-------------------------------------------------------|
|-------------------------------------------------------|
|-5bt--/--17t-------------------------------------------|
|-------------------------------------------------------|
|-------------------------------------------------------|
|-------------------------------------------------------|

Very End:

|-------------------------------------------------------|
|-20\---------------------------------------------------|
|--x----------------------------------------------------|
|-17\---------------------------------------------------|
|-------------------------------------------------------|
|-------------------------------------------------------|
|-------------------------------------------------------|




Important: The song above is NOT stored on the Chordie server. The original song is hosted at www.xguitar.com. Chordie works as a search engine and provides on-the-fly formatting. Chordie does not index songs against artists'/composers' will. To remove this song please click here.

This song is displayed as text-only. Transposing and tuning is only available for chordpro-songs.

Login - add to songbook

Rating click stars to rate

Layout
Accuracy

SHARE PAGE  




You need to log in to post comments