Guitar Tabs, Chords and Lyrics


Oblivious To Evil    Deicide



DEICIDE - OBLIVIOUS TO EVIL
                            From the Album - DEICIDE
                          Copyright - R/C RECORDS 1990
                           Version 2.0 - Feb 22, 2002

Transcribed By: James Williams (Inverted)

For Questions, Comments, Newest Version, Corrections or Request;
Contact Inverted: at Inverted_one@hotmail.com

Check Out Death8699.com, With More Transcriptions On It:
http://www.death8699.com

.  - palm mute           /  - slide up to
\  - slide down to       ~  - vibrato
h  - hammer on           b  - Bend
p  - pull off            Suffixes for bend
t  - tap                 f  - full bend    h - half bend
ph - pinched harmonic    q  - quarter bend t - tap bend
*  - see comment         ^  - Hold bend    r release bend
x  - Stuccatto           ~  - vibrato bend
,  - slight palm mute    () - ghost note, sustained note
"  - tremolo note         - Trill

Tunning "D#"G#"C#"F#"A#"d#"

Intro                                                       1st time
|-------------------------------------------------------------------|
|-------------------------------------------------------------------|
|-------------------------------------------------------------------|GTR
|-------------------------------------------------------------------|I&II
|--2-3-2-3-2-3-2-3-2-3-2-3-2-3-2-3-2-3-2-3-2-3-2-3-2-3-2-3-2-3-2-3--|
|--0-1-0-1-0-1-0-1-0-1-0-1-0-1-0-1-0-1-0-1-0-1-0-1-0-1-0-1-0-1-0-1--|
   . . . . . . . . . . . . . . . . . . . . . . . . . . . . . . . .

                                                               2nd time
|----------------------------------------------------------------------|
|----------------------------------------------------------------------|
|----------------------------------------------------------------------|GTR I
|-------------------------------------------------------------------2--|
|--2-3-2-3-2-3-2-3-2-3-2-3-2-3-2-3-2-3-2-3-2-3-2-3-2-3-2-3-2-3------2--|
|--0-1-0-1-0-1-0-1-0-1-0-1-0-1-0-1-0-1-0-1-0-1-0-1-0-1-0-1-0-1-0000-0--|
|  . . . . . . . . . . . . . . . . . . . . . . . . . . . . . . ....    |
|                                                                      |
|----------------------------------------------------------------------|
|----------------------------------------------------------------------|
|--4-5-4-3-4-5-4-3-4-5-4-3-4-5-4-3-4-5-4-3-4-5-4-3-4-5-4-3-4-5---------|GTR II
|--2-3-2-1-2-3-2-1-2-3-2-1-2-3-2-1-2-3-2-1-2-3-2-1-2-3-2-1-2-3------2--|
|-------------------------------------------------------------------2--|
|--------------------------------------------------------------0000-0--|
   . . . . . . . . . . . . . . . . . . . . . . . . . . . . . . ....

JOIN US!!!

*Note: For Riff 1 you can play those three notes as slides or you can
       simply play them as normal. The slides sound more accuate though.

Riff 1
|------------------------------------------------------|
|------------------------------------------------------|
|------------------------------------------------------|
|--------3------------5/4/3--------3-------------------|
|--------3------------5/4/3--------3------9-7-6--------|
|--0-0-0-1--0-0-0-0-0-3/2/1--0-0-0-1--0-0-------7-6-4--|
   . . .    . . . . .        . . .    . . . . . . . .

Riff 1-A
|------------------------------------------------------|
|------------------------------------------------------|
|------------------------------------------------------|
|--------3x-----------5-4-3x-------3x------------------|
|--------3x-----------5-4-3x-------3x-----9-7-6--------|
|--------1x-----------3-2-1x-------1x-0-0-------7-6-4--|
                                      . . . . . . . .
Riff 2
|-----------------------------|
|-----------------------------|
|-----------------------------|
|-----------------------------|
|---------------997766--------|
|--0-0-0-0-0-0--------776644--|
   . . . . . .  ,,,,,,,,,,,,

Play Riff 1 (6 times)
     Riff 2 (4 times)
     Riff 1 (4 times)

Riff 3                                     x4
|--------------------------------------------|
|--------------------------------------------|
|--------------------------------------------|
|-----------------------------------------3--|
|--------------------3--------------------1--|
|--3-2-0-2-1-0-3-2-0-1--3-2-0-2-1-0-3-2-0----|
   . . . . . . . . .    . . . . . . . . .

Riff 4 (Solo Riff 1)                                 x4
|------------------------------------------------------|
|------------------------------------------------------|
|------------------------------------------------------|
|------------------------------------------------------|
|----------997766--------------997766-------------7\8--|
|--00000000------77664400000000------7766440000-0-5\6--|
   ,,,,,,,,,,,,,,,,,,,,,,,,,,,,,,,,,,,,,,,,,,,, .

Riff 5 (Solo Riff 2)                     x8
|------------------------------------------|
|------------------------------------------|
|------------------------------------------|
|-------------------------------------7-8--|
|-----------------5-4-----------------5-6--|
|--00003322110000-3-3--00003322110000------|
   ,,,,,,,,,,,,,,      ,,,,,,,,,,,,,,

Riff 5-A                                   x1
|--------------------------------------------|
|--------------------------------------------|
|--------------------------------------------|
|---------------------------------------7-8--|
|-------5-4-3------5-4-------5-4-3------5-6--|
|--0000-3-2-1-0000-3-2--0000-3-2-1-0000------|
   ,,,, . . . ,,,,      ,,,, . . . ,,,,

Repeat Riff 1 (6 times)
       Riff 2 (4 times)
       Riff 1 (3 times)

End                         x1
|-----------------------------|
|-----------------------------|
|-----------------------------|
|--------3------------5-4-3x--|
|--------3------------5-4-3x--|
|--0-0-0-1--0-0-0-0-0-3-2-1x--|
   . . .    . . . . .

Check out my other tabs By Deicide, Obituary, Catastrophic,


Important: The song above is NOT stored on the Chordie server. The original song is hosted at www.xguitar.com. Chordie works as a search engine and provides on-the-fly formatting. Chordie does not index songs against artists'/composers' will. To remove this song please click here.

This song is displayed as text-only. Transposing and tuning is only available for chordpro-songs.

Login - add to songbook

Rating click stars to rate

Layout
Accuracy

SHARE PAGE  




You need to log in to post comments