Guitar Tabs, Chords and Lyrics


Sacrificial Suicide    Deicide



Deicide - Sacrificial Suicide
Submitted By: Sqweeky
EMail: Blindside831@aol.com
From the Album: DEICIDE
Copyright: R/C RECORDS 1990
Version 1.0 - Feb 23, 2002

Transcribed By: James Williams (Inverted)

For Questions, Comments, Newest Version, Corrections or Request;
Contact Inverted: at Inverted_one@hotmail.com

Check Out Death8699.com, With More Transcriptions On It:
http://www.death8699.com

.  - palm mute           /  - slide up to
\  - slide down to       ~  - vibrato
h  - hammer on           b  - Bend
p  - pull off            Suffixes for bend
t  - tap                 f  - full bend    h - half bend
ph - pinched harmonic    q  - quarter bend t - tap bend
*  - see comment         ^  - Hold bend    r release bend
x  - Stuccatto           ~  - vibrato bend
,  - slight palm mute    () - ghost note, sustained note
"  - tremolo note         - Trill

Tunning "D#"G#"C#"F#"A#"D#"

Intro
|---------------------------------------------------------|
|---------------------------------------------------------|
|---------------------------------------------------------|
|---------------------------------------------------------|
|---------------------------------------------------------|
|--00000000000000000000000000000000000000000000000000000--|


Riff 1                    x3                            x1
|---------------------------|-----------------------------|
|---------------------------|-----------------------------|
|---------------------------|-----------------------------|
|------9------------9-----9-|-----------------------------|
|------7-----997766-7-----7-|-----8-----8-----8-----8-----|
|--000---000----------000---|-000-6-000-6-000-6-000-6-----|
|  ...   ...          ...     ...   ...   ...   ...       |
|                                                         |
|---------------------------|-----------------------------|
|---------------------------|-----------------------------|
|---------------------------|-----------------------------|
|------9------------9-----9-|--------------------------9--|
|------7-----997766-7-----7-|-----8-----8-----8-----8--7--|
|--000---000----------000---|-000-6-000-6-000-6-000-6-----|
   ...   ...          ...     ...   ...   ...   ...


Riff 2                   x3                          x1
|--------------------------|---------------------------|
|--------------------------|---------------------------|
|--------------------------|---------------------------|
|--------------------------|---------------------------|
|--2-----2-----2-----2-2-2-|-2-----2-----997766--------|
|--0-000-0-000-0-000-0-0-0-|-0-000-0-000-------997766--|
   . ... . ... . ... . . .   . ... . ...


Riff 3
|--------------------------------------------|
|--------------------------------------------|
|--------------------------------------------|
|------9-10-9-----7-8-7-----9-10-9-7--6-7-6--|
|------7--8-7-----5-6-5-----7--8-7-5--4-5-4--|
|--000--------000-------000------------------|
   ...        ...       ...


Riff 4                    x2                            x1
|---------------------------|-----------------------------|
|---------------------------|-----------------------------|
|---------------------------|-----------------------------|
|-------------11-9-8--------|------------11-9-8-----------|
|--7-----7-----9-7-6-11-9-8-|-7-----7-----9-7-6-11-9-8----|
|--0-000-0-000--------9-7-6-|-0-000-0-000--------9-7-6----|
   . ... . ... . . .  . . .   . ... . ... . . .  . .


Riff 5                    x3                      x1
|---------------------------|-----------------------|
|---------------------------|-----------------------|
|---------------------------|-----------------------|
|---------------------------|-----------------------|
|--------------997766-------|--------------8-----7--|
|--000000000000------997766-|-000000000000-6-000-5--|


Riff 6 (Chorus)
|---------------------------------------------------------|
|---------------------------------------------------------|
|---------------------------------------------------------|
|---------------------------------------------------------|
|--5--3--2-------5--3--2-------5--3--2-----------8-----7--|
|--3--1--0-0-0-0-3--1--0-0-0-0-3--1--0-0-0-0-000-6-000-5--|
           . . .         . . .         . . . ...   ...

End Riff
|---------------------|
|---------------------|
|---------------------|
|---------------------|
|------8-----7----2x--|


Important: The song above is NOT stored on the Chordie server. The original song is hosted at www.xguitar.com. Chordie works as a search engine and provides on-the-fly formatting. Chordie does not index songs against artists'/composers' will. To remove this song please click here.

This song is displayed as text-only. Transposing and tuning is only available for chordpro-songs.

Login - add to songbook

Rating click stars to rate

Layout
Accuracy

SHARE PAGE  




You need to log in to post comments