Guitar Tabs, Chords and Lyrics


Halls of Warship    Deicide



Band: Deicide

Album: Insineratehymn

Song: Halls Of Warship



Tablature Legend
----------------
  ~   - vibrato
|-3-| - Triplet
  PM  - palm muting


Misc Legend
-----------
 |  - bar
||  - double bar
||o - repeat start
o|| - repeat end



Gtr I & II Tuned Full Step Down (D G C F A D)

Riff 1a:Intro
    Gtr I
||-------------------------------------------------------------------|
||o------------------------------------------------------------------|
||-------------------------------------------------------------------|
||--4-4-4-4-3-3-3-3-4-4-4-4-7-7-7-7-4-4-4-4-3-3-3-3-4-4-4-4-3-3-3-3--|
||o------------------------------------------------------------------|
||-------------------------------------------------------------------|


                                   4x
|----------------------------------||
|---------------------------------o||
|----------------------------------||
|----------------------------------||
|-5-5-5-5-6-6-6-6-5-5-5-5-6-6-6-6-o||
|----------------------------------||

Riff 1b:Intro
    Gtr II
||--------------------------------------------------------------------|
||o-------------------------------------------------------------------|
||--------------------------------------------------------------------|
||--------------------------------------------------------------------|
||o-------------------------------------------------------------------|
||--2-2-2-2-1-1-1-1-2-2-2-2-5-5-5-5-2-2-2-2-1-1-1-1-2-2-2-2-1-1-1-1---|


                                   2x
|----------------------------------||
|---------------------------------o||
|----------------------------------||
|----------------------------------||
|-5-5-5-5-6-6-6-6-5-5-5-5-6-6-6-6-o||
|----------------------------------||


Riff 2:Verse
    PM--|   PM----------|
                            ~  6x
||-----------------------------||
||o---------------------------o||
||-----------------------------||
||--7-4-2---4-3-2-3-7-4-2------||
||o-7-4-2---4-3-2-3-7-4-2-----o||
||--5-2-0-5-2-1-0-1-5-2-0-5-1--||


Riff 3:Bridge
    PM------------|    PM------------|
                                          4x
||----------------------------------------||
||o--------------------------------------o||
||------------------10-----------------9--||
||------------------10-----------------9--||
||o------------------8-----------------7-o||
||--0-0-0-0-0-0-0-0----0-0-0-0-0-0-0-0----||


Riff 4:Verse-b
    PM--------------------------|     PM----------------------------|
                |-3-| |-3-|                         |-3-| |-3-|          4x
||----------------------------------|-------------------|----------------||
||o---------------------------------|-------------------|---------------o||
||----------------------------------|-------------------|----------------||
||--------------------------------6-|-------------------|-------------4--||
||o---------------------------------|-------------------|---------------o||
||--0-0-0-0-0-0-0-0-0-0-0-0-0-6-7---|-0-0-0-0-0-0-0-0-0-|-0-0-0-0-4-5----||


Order:

Riff 1a:Intro GtrI 4x
  Riff 1a:Intro GtrII 2x - Riff 1b:Intro GtrII 2x

Riff 2:Verse 6x

Riff 1a:Intro GtrI 4x
  Riff 1a:Intro GtrII 2x - Riff 1b:Intro GtrII 2x

Riff 3:Bridge 8x

Riff 4:Verse-b 4x

Riff 1a:Intro GtrI 4x
  Riff 1a:Intro GtrII 2x - Riff 1b:Intro GtrII 2x

Riff 2:Verse 6x

Riff 1a:Intro GtrI 4x
  Riff 1a:Intro GtrII 2x - Riff 1b:Intro GtrII 2x

Riff 3:Bridge 8x



Important: The song above is NOT stored on the Chordie server. The original song is hosted at www.xguitar.com. Chordie works as a search engine and provides on-the-fly formatting. Chordie does not index songs against artists'/composers' will. To remove this song please click here.

This song is displayed as text-only. Transposing and tuning is only available for chordpro-songs.

Login - add to songbook

Rating click stars to rate

Layout
Accuracy

SHARE PAGE  




You need to log in to post comments