Guitar Tabs, Chords and Lyrics


Holy Deception    Deicide



DEICIDE - HOLY DECEPTION
                     From the Album LEGION
               Copyright 1992 ROADRUNNER RECORDS





..  - palm mute          /  - slide up to
 \  - slide down to      ~  - vibrato
 h  - hammer on          b  - bend
 p  - pull off            Suffixes for bend
                          ph - pinch harmonic
                           f - full bend    h - half bend
*  - see comment           r - release      t - tap bend
X  - percussion mute       ~ - vibrato bend
@  - slight palm mute     () - ghost note, sustained note


Tune Gtr to E


HOLY DECEPTION

Riff 1
|-------------------------------|
|-------------------------------|
|-------------------------------|
|-------------------------------|
|-------------------------------|
|-21000000332222110000021003211-|
  .............................

Riff 2
|-----------------------------------------------------------------|
|-----------------------------------------------------------------|
|-----------------------------------------------------------------|
|---------------------------------------------------5-4-----------|
|--------33332222--------22221111--------33332222-4-3-2---4-5-4-3-|
|-000000----------000000----------000000----------2-----0-2-3-2-1-|
  ......          ......          ......          . . . . . . . .


Riff 3
|----------------------------------------------------------------------------------------------------|
|----------------------------------------------------------------------------------------------------|
|----------------------------------------------------------------------------------------------------|
|------------------------------------------------2-3-------------------------------------------------|
|-333322221100------------------333322221100-1-2------333322221100------------------33332222---------|
|--------------2222111122223333------------------------------------2222111122223333----------1-2-1-0-|
                                             . . . .                                         . . . .


Riff 4
|-------------------------------------------------------------------------------|
|-------------------------------------------------------------------------------|
|-------------------------------------------------------------------------------|
|------------4--------------3----2--------------5--------------5----4-----------|
|-2----------2----2---------1----0---------3----3---------3----3----2-----------|
|-0-----2101------0----2101-----------3212-1---------3212-1--------------321210-|
        ....           ....           ....           ....                ......

---------------------------------------------------------------------------------

Song Structure:

Riff 1 x 10
Riff 2 x 4
Riff 3 X 4
Riff 1 X 4
Riff 4 X 2
Riff 1 X 4
Riff 2 X 4
Riff 3 X 4


Important: The song above is NOT stored on the Chordie server. The original song is hosted at www.xguitar.com. Chordie works as a search engine and provides on-the-fly formatting. Chordie does not index songs against artists'/composers' will. To remove this song please click here.

This song is displayed as text-only. Transposing and tuning is only available for chordpro-songs.

Login - add to songbook

Rating click stars to rate

Layout
Accuracy

SHARE PAGE  




You need to log in to post comments