Guitar Tabs, Chords and Lyrics


Mad at God    Deicide


-=-=-=-=-=-=-=-=-=-=-=-=-=-=-=-=-=-=-=-=-=-=-=-=-=-=-=-=-=-=-=-=-=-=-=-=-=-=-=-=





Intro:


                                                                                     


eb|-Gtr. 1----------------------------------------------------------|
Bb|-----------------------------------------------------------------|
Gb|-----------------------------------------------------------------|
Db|-----------------------6-----------------------------6-----------|
Ab|-2-------------7-7-5-6-4-6-4-5-2-2-----------7-7-5-6-4-6-4-5-2-2-|
Eb|-0-------------5-5-3-4---4-2-3-0-0-----------5-5-3-4---4-2-3-0-0-|





  | .             * * * * * * * * * *           * * * * * * * * * *





                                                                                     


eb|-Gtr. 2----------------------------------------------------------|
Bb|-----------------------------------------------------------------|
Gb|-----------------------------------------------------------------|
Db|-----------------------6-----------------------------6-----------|
Ab|-2-5-6-7--5-6--7-7-5-6-4-6-4-5-2-2-6-7--5-6--7-7-5-6-4-6-4-5-2-2-|
Eb|-0-------------5-5-3-4---4-2-3-0-0-----------5-5-3-4---4-2-3-0-0-|





                  * * * * * * * * * *           * * * * * * * * * *





Fig. 1 x 4


                                                                                     


eb|-Gtr. 1------------------------|
Bb|-------------------------------|
Db|-667--556----------6-----------|
Ab|-----------7-7-5-6-4-6-4-5-2-2-|
Eb|-----------5-5-3-4---4-2-3-0-0-|





  |           * * * * * * * * * *


                                                                                     


eb|-Gtr. 2------------------------|
Bb|-------------------------------|
Gb|-------------------------------|
Ab|-667--556--7-7-5-6-4-6-4-5-2-2-|
Eb|-----------5-5-3-4---4-2-3-0-0-|





              * * * * * * * * * *





Verse 1[omit open Es on 7tb time]:


                                                                                     


eb|-Gtr. 1-----------------------x7|
Bb|--------------------------------|
Gb|-------------2233444455556------|
Db|--------------------------------|
Ab|--------------------------------|
Eb|-555544444444--------------0000-|





  | ^^^^^^^^^^^^              ^^^^


                                                                                     


eb|-Gtr. 2-----------------------x7|
Bb|--------------------------------|
Gb|--------------------------------|
Db|--------------------------------|
Ab|-------------0011222233334------|
Eb|-555544444444--------------0000-|





    ^^^^^^^^^^^^^^^^^^^^^^^^^ ^^^^





Chorus 1[

Important: The song above is NOT stored on the Chordie server. The original song is hosted at www.xguitar.com. Chordie works as a search engine and provides on-the-fly formatting. Chordie does not index songs against artists'/composers' will. To remove this song please click here.

This song is displayed as text-only. Transposing and tuning is only available for chordpro-songs.

Login - add to songbook

Rating click stars to rate

Layout
Accuracy

SHARE PAGE  




You need to log in to post comments