Chordie logo


Fell Off The Floor, Man   Deus



Fell Off The Floor, Man

tab by Stewart & Avi 

Intro -
something like...
    G   F
e|----------|
B|----------|
G|--12--10--|
D|--12--10--|
A|--10--8---|
E|----------|

after the first time | after the
another guitar do -  | second time - 
e|------|            |------|
B|------|            |------|
G|--10--|            |--12--|
D|--10--|            |--12--|
A|--8---|            |--10--|
E|------|            |------|

then - 
e|---------------------------------|
B|---------------------------------|
G|---------------------------------|
D|---------------------------------|
A|---------------------------------|
E|-4-4-4-2-2-2-2-2-7-7-7-1-1-1-1-1-|

then another guitar plays this -
e|---------------------------------|
B|---------------------------------|
G|---------------------------------|
D|-6-6-6-4-4-4-4-4-9-9-9-3-3-3-3-3-|
A|---------------------------------|
E|---------------------------------|

After which both are played together

Verse - 

only bass...
G|-------|
D|-------|
A|-------|
E|-7-7-9-|

over which Craig plays this - 
e|-----------|
B|-----------|
G|-----------|
D|-9-9-9-9-9-|
A|-----------|
E|-----------|

The loud Eb after “headcase”...
e|-----|
B|-----|
G|--8--|
D|--8--|
A|--6--|
E|-----|

this riff over the “I don't need no...” bit - 
e|-----------|
B|-----------|
G|-4-4-4-6br-|
D|-----------|
A|-----------|
E|-----------|

The loud chord at the end of this bit is again an Eb

The funky keyboard solo is I think C G A C G A  - Loud Eb - then D A 

There is a key change and the chords are -
   C#5    Eb5 
e|-----|-----|
B|-----|-----|
G|--6--|--8--|
D|--6--|--8--|
A|--4--|--6--|
E|-----|-----|

The heavy bit -
e|------------------------------------|
B|------------------------------------|
G|------------------------------------|
D|-6-6-6--4-4-4-4-4--9-9-9--3-3-3-3-3-|
A|-6-6-6--4-4-4-4-4--9-9-9--3-3-3-3-3-|
E|-4-4-4--2-2-2-2-2--7-7-7--1-1-1-1-1-|

then verse again and then...
e|-----|------|
B|-----|------|
G|-----|------|
D|--9--|--11--|
A|--9--|--11--|
E|--7--|--9---|

Then the bass plays - 
G|-----------|
D|-----------|
A|-----------|
E|-0-0-0-0-0-|

...and heavy again

Outro - 

   Bb5   C#5 
e|-----|------|
B|-----|------|
G|-----|------|
D|--8--|--11--|
A|--8--|--11--|
E|--6--|--9---|

one guitar - 
e|-----------|
B|-9-7-------|
G|-----9-8-6-|
D|-----------|
A|-----------|
E|-----------|

another guitar - 
e|-----------|
B|-----------|
G|-----6-8-9-|
D|-7-9-------|
A|-----------|
E|-----------|



Important: The song above is NOT stored on the Chordie server. The original song is hosted at www.xguitar.com. Chordie works as a search engine and provides on-the-fly formatting. Chordie does not index songs against artists/composers will. To remove this song please click here.

This song is displayed as text-only. Transposing and tuning is only available for chordpro-songs.

Login - add to songbook

Rating click stars to rate

Layout
Accuracy

SHARE PAGE  




You need to log in to post comments