eToCache5 = ""; ?> Via by Deus - guitar chords, guitar tabs and lyrics - chordie

Via

Deus

e|-----------|---|----|----------|--0--|

B|-----------|-5-|----|----------|--1--|

G|-----------|---|-5v-|----------|--0--|

D|------4vib-|---|----|-----4vib-|--2--|

A|-----------|---|----|----------|--3--|

E|-/3-3------|---|----|-/3-3-----|-----|


 CGDF#
e|------|------|------|------|
B|------|------|------|------|
G|------|--12--|------|--11--|
D|--10--|--12--|--12--|--11--|
A|--10--|--10--|--12--|--9---|
E|--8---|------|--10--|------|

Chorus -
 GDCG
e|---|---|---|---|-----------|-----------|
B|---|-7-|-8-|---|-----------|-----------|
G|-7-|---|---|-7-|-----------|-----------|
D|-0-|---|---|---|-----------|-----------|
A|---|---|---|---|---5-4-----|---5-4-2-2-|
E|---|---|---|---|-3-----5-5-|-3---------|

_________ _______
G D C G / twice \ / twice \
e|---|---|---|---|-----------|---------|-----|
B|---|-7-|-8-|---|-----------|---------|-----|
G|-7-|---|---|-7-|-----------|---------|-----|
D|-0-|---|---|---|-----------|---------|-----|
A|---|---|---|---|---5-4-----|---5-4---|-----|
E|---|---|---|---|-3-----5-5-|-3-----5-|--3--|

At (01:38-01:49,02:33-02:44,3:08-end)there's this on classic guitar -
e|------------------------------|
B|--------3---------3---------3-|
G|---4---------4---------4------|
D|-5---5-----5---5-----5---5----|
A|------------------------------|
E|------------------------------|

this at 2:15 -
e|--------------|
B|--------------|
G|--------------|
D|-0-2-4-2-4-5v-|
A|--------------|
E|--------------|

this at 2:22 -
e|-------|--------------|
B|-------|--------------|
G|-------|--------------|
D|-2/4/5-|-4/5/7-5-4-2v-|
A|-------|--------------|
E|-------|--------------|

Bridge -
 GDGD
                then...
 C
    Outro -
_______
/repeat \
e|---------|----|
B|---------|----|
G|---------|----|
D|---------|----|
A|---5-4---|----|
E|-3-----5-|-3v-|






















C D F# G
variations - click chord images
Transpose chords:
Tuning:
Cool service:
View: Size:
A  A  A
Rating:
Layout:
  • Currently 3.8/5 Stars.
  • 1
  • 2
  • 3
  • 4
  • 5
 
Accuracy:
  • Currently 2.9/5 Stars.
  • 1
  • 2
  • 3
  • 4
  • 5
 
click stars to rate
Chordie recommends:
Learn to play guitar with video-based, online guitar lessons at JamPlay.com
Songbook:
Login to add this song to your songbook
Support the artist
Preview/buy this song
MSN Music
Why this non-profit ad?

 
login to add comments/video/corrections