Guitar Tabs, Chords and Lyrics


Behind the Curtains of Night-Phantasmagoria    Dimmu Borgir



Dimmu Borgir - Dehind The Curtains Of Night - Phantasmagori
Submitted By: Sqweeky
EMail: Blindside831@aol.com
Album:Spiritual Black Dimmensions


Key:
p=pull-off
h=hammer-on
/=slide
pm=palm mute
..=tremelo picking
T =tapping
T/=tap slide
D=drop whammy Bar


Riff 1x2
--------------------------------------------------------------
--------------------------------------------------------------
--------------------------------------------------------------
--2---------------3/6-5-/9-8---2---------------3/6-5----------
--2-----------5\4-3/6-5--------2-----------5\4-3/6-5-/5-5-----
--0-00000000--7\6-1/4-3-/7-6---0-00000000--7\6-1/4-3-/7-6-----
    pm......                     pm......
Riff 2x3
----------------------------------------------------------------
----------------------------------------------------------------
----------------------------------------------------------------
--2--------------3/6-5-/9-9\8---2-------------------------------
--2----------5\4-3/6-5----------2----------5\4-3/6-5-/5-5\5-----
--0-0-0-0-0--7\6-1/4-3-/7-7\6---0-0-0-0-0--7\6-1/4-3-/7-7\6-----
    pm.....                       pm.....

Riff 3 x2

------------------------------------------|two giutars|---------------------
----------------------------------------------------------------------------
----------------------------------------------12-----9----------------------
------2-----2-----2--9\7-7/10------2-----2----------------------------------
------2-----2-----2--7\5-5/8-------2-----2----10-----7----------------------
--000-0-000-0-000-0------------000-0-000-0-333-3-111-1-000-0-000-0-000-0----
pm...   ...   ...              ...   ...   ...   ...   ...   ...
---------------------------------------------
---------------------------------------------
--------------------------------|two guitars|
--9\7-7/10-101010-10--101010-10--------------
--7\5-7/8--8-8-8--8---8-8-8--8--111-1-222-2--
--------------------------------333-3-444-4--
pm         ....       ....      ...   ...

Solo with riff 2x2
--------------------------------------------------------------------------------------------------
---------------------------------D----------------------------------------------------------------
--2p0h2p0h2p0h4p0h4p0h4p0h5p0h5p-0----5 harmonic--------------------------------------------------
--------------------------------------------------------------------------------------------------
------------------------------------------------------------------D-------------------------------
------------------------------------------------------------------0-----------------5 Harmonic----
 |use bar up and down quickly  |then drop and pull up on Harmonic|drop bar and pull up on Harmonic|

 T           T  T            T/          T/           T           T  T            T/          T/
19-12h15p12-19-19-12h15p12--19/24-15p12-19/24-15p12--20-12h15p12-20-20-12h15p12--20/24-15p12-20/24-15p12-
---------------------------------------------------------------------------------------------------------
---------------------------------------------------------------------------------------------------------
---------------------------------------------------------------------------------------------------------
---------------------------------------------------------------------------------------------------------
---------------------------------------------------------------------------------------------------------

-12-16-13-12h13p12-----------------------------------------------------------------------
-------------------15-13-12h13p12--------------------------------------------------------
----------------------------------14-13-13h14p13-----------------------------------------
-------------------------------------------------15-14-12h14p12--------------------------
----------------------------------------------------------------15-14-12h14p12\----------
-----------------------------------------------------------------------------------------


Riff 4x2
-------------------------------------
-------------------------------------
-------------------------------------
--2----6-----5-----2-----2--3----3---
--2----6-----5-----2-----2--3----3---
--0----4-----3-----0-----0--1----1---
                       pm..........

Riff 4bx2
--------------------------------------------------------------------
--------------------------------------------------------------------
--------------------------------------------------------------------
--------------------------------------------------------------------
--------------------------------------------------------------------
--00000000000000---44444444444---33333333333333--0000000000001111---

Riff 5 (ALMOST exactly like riff 3 but not quite the rythme on the E is actually backwards)
---------------------------------------------------------------------------
---------------------------------------------------------------------------
---------------------------------------------------------------------------
-------------------9/7--10-------------------------------------------------
-------------------7/5--8--------------------------------------------------
-0-000-0-000-0-000-----------0-000-0-000-333-3-111-1-0-000-0-000-0-000-----
pm ...   ...   ...             ...   ... ...   ...     ...   ...   ...

---------------------------------------------
---------------------------------------------
--------------------------------|two guitars|
--9\7-7/10-101010-10--101010-10--------------
--7\5-7/8--8-8-8--8---8-8-8--8--111-1-222-2--
--------------------------------333-3-444-4--
pm         ....       ....      ...   ...

Riff 6x2
--------------6-----------------------------------------6--------------------------
---------------7-----------------------------------------7-------------------------
------------8---8-------------------------------------8---8-------------8--11-12---
--2--2-2----8----8-----2--2-2---8-11-12-----2--2-2----8----8----2--2-2-------------
--2--2-2----6-----6----2--2-2---------------2--2-2----6-----6---2--2-2--6--9--10---
--0--0-0----6------6---0--0-0---6-9--10-----0--0-0-----------6--0--0-0-------------
              |rake|                                    |rake|
Riff 7x2
----------------------------------------------------------------------------------------
----------------------------------------------------------------------------------------
----------------------------------------------------------------------------------------
----------------------------------------------------------------------------------------
------------666666666------------4/7h8--7\4---------------------------------6/9h10-9\6--
--000000000-----------000000000--6/9h10-9\6--000000000-666666666-000000000--6/9h10-9\6--


Important: The song above is NOT stored on the Chordie server. The original song is hosted at www.xguitar.com. Chordie works as a search engine and provides on-the-fly formatting. Chordie does not index songs against artists'/composers' will. To remove this song please click here.

This song is displayed as text-only. Transposing and tuning is only available for chordpro-songs.

Login - add to songbook

Rating click stars to rate

Layout
Accuracy

SHARE PAGE  




You need to log in to post comments