Chordie logo

Holy Diver   Dio

e|------------------------------------|


B|------------------------------------|


G|--6--6-6-6--6-6-6--8--9-------------|


D|--6--6-6-6--6-6-6--8--9-------------|


A|--4--4-4-4--4-4-4--6--7-------------|


E|------------------------------------|



e|------------------------------------|


B|------------------------------------|


G|--6--6-6-6--6-8/9---4---------------|


D|--6--6-6-6--6-8/9---4---------------|


A|--4--4-4-4--4-6/7---2---------------|


E|------------------------------------|



e|------------------------------------|


B|------------------------------------|


G|--6--6-6-6--6-8/9---4---------------|


D|--6--6-6-6--6-8/9---4---------------|


A|--4--4-4-4--4-6/7---2---------------|


E|------------------------------------|



e|--------------------| e|--------------------|


B|--------------------| B|--------------------|


G|--6----4----6-------| G|--6----4------------|


D|--6----4----6-------| D|--6----4----7-------|



A|--4----2----4-------| A|--4----2----7-------|


E|--------------------| E|------------5-------|


[C#5]Holy Diver
You've been down too long in the midnight [A5]sea
[C#5]Oh what's bec[B5]oming of [A5]me

[C#5]Ride the tiger
You can see his stripes but you know he's [A5]clean
[C#5]Oh don't you s[B5]ee what I [C#5]mean
Gotta [A5]get away
B5 (Intro riff)
Holy Diver

[C#5]Shiny diamonds
Like the eyes of a cat in the black and [A5]blue
[C#5]Something is c[B5]oming for [A5]you   [A5]   [B5]

[C#5]Race for the morning
You can hide in the sun 'till you see the [A5]light
[C#5]Oh we will p[B5]ray it's all [C#5]right
Gotta [A5]get awaaaaay-get[B5] awaaaaaay[C5]

[C#5]     Bet[B5]ween the velvet [A5]lies  [A5]   [B5]
[C#5]     There's a t[B5]ruth that's hard as [G#5]steel  [G#5]    [B5]
[C#5]     The v[B5]ision never [A5]dies  [A5]   [B5]
[C#5]     Life's a n[B5]ever ending [A5]wheel

[C#5]Holy Diver
You're the star of the masquer[A5]ade
[C#5]No need to lo[B5]ok so afr[A5]aid   [A5]   [B5]

[C#5]Jump on the tiger
You can feel his heart but you know he's [A5]mean
[C#5]Some light c[B5]an never be s[C#5]een

SOLO!

[A5]A5        [B5]A|-7~~--6~[A5]~-|        [B5]C#5  B5   [E5]   [D#5]

(Repeat verse 1)

That's all! Have fun!
Listen to the song to get the right timing!
E-mail me if you have any comments.

Important: The song above is NOT stored on the Chordie server. The original song is hosted at www.xguitar.com. Chordie works as a search engine and provides on-the-fly formatting. Chordie does not index songs against artists/composers will. To remove this song please click here.

A5 B5 C#5 C5 D#5 E5 G#5
variations - click chord images

Login - add to songbook

Transpose chords

Tuning

Rating click stars to rate

Layout
Accuracy

SHARE PAGE  

You need to log in to post comments