Guitar Tabs, Chords and Lyrics


I Am Revenant    Distillers



The Distillers - I Am Revenant
Submitted By: Mitchel Cowan


intro:
e|---------------------------------------------------------------------------------|
B|---------------------------------------------------------------------------------|
G|----------0---4---0---2---0---2---4---2---0---2---0------0-----0-----2---0-------|
D|--2---4------------------------------------------------------4-----4----------4--|
A|---------------------------------------------------------------------------------|
E|---------------------------------------------------------------------------------|

e|----------------------------------------------------------------------------|
B|----------------------------------------------------------------------------|
G|----------0---4---0---2---0---2----b4---b2---0---2---0----------------------|
D|--2---4----------------------------------------------------------4---2------|
A|----------------------------------------------------------------------------|
E|----------------------------------------------------------------------------|

verse:
e|------0---3----3----2----0---|
B|------1---3----3----3----3---|
G|------0---0----2----2----2---|
D|--2---2---0----0----0----0---|
A|--2---3---2------------------|
E|--0--------3-----------------|
   pm pm pm

"do you remember..."
e|--------------------------------------------------------------------------------------------|
B|--------------------------------------------------------------------------------------------|
G|-------5--------------------------5---------7-----------5-------------------5---------7-----|
D|--2----5----5-----5----4----2-----5----5----7-----2-----5-----5---4----2----5----5----7-----|
A|--2----3----5-----5----4----2-----3----5----5-----2-----3-----5---4----2----3----5----5-----|
E|--0---------3-----3----2----0----------3----------0-----------3---2----0----------3---------|

intro to chorus:
e|---0----0---3---2---3---2-------------|
B|---------------------------------b3---|
G|--------------------------------------|
D|--------------------------------------|
A|--------------------------------------|
E|--------------------------------------|

chorus:
e|-----------------------|
B|-----------------------|
G|--3----------5---------|
D|--3----3-----5----5----|
A|--1----3-----3----5----|
E|-------1----------3----|

bridge:
e|----------------------|
B|----------------------|
G|--7---------5---------|
D|--7---2-----5-----5---|
A|--5---2-----3-----5---|
E|-- ---0-----------3---|

solo:
e|--12------10---|
B|--12------10---|
G|---------------|
D|---------------|
A|---------------|


Important: The song above is NOT stored on the Chordie server. The original song is hosted at www.xguitar.com. Chordie works as a search engine and provides on-the-fly formatting. Chordie does not index songs against artists'/composers' will. To remove this song please click here.

This song is displayed as text-only. Transposing and tuning is only available for chordpro-songs.

Login - add to songbook

Rating click stars to rate

Layout
Accuracy

SHARE PAGE  




You need to log in to post comments