Guitar Tabs, Chords and Lyrics


Awaken   Disturbed



Song: "Awaken"
Artist: Disturbed
Album: Believe
Transcribed By: Bryan Bramlett (bryanmb87@aol.com)

Tuning: Drop D, 1/2 Step Down (Db,Ab,Db,Gb,Bb,Eb)

INTRO:
|------------------------------------------------------|
|------------------------------------------------------|
|---------------------------------------------------|
|--------/9--------------------------/9----------------|
|-3-2--2-/7--3-2--3-2--3-5--0-3-2--2-/7--3-2--3-5-5----|
|-3-2--2-----3-2--3-2--3-5--0-3-2--2-----3-2--3-5-5----|

|--------------------------------------------------------|
|--------------------------------------------------------|
|--------------------------------------------------------|
|--------/9--------------------------/9------------------|
|-3-2--2-/7--3-2--3-2--3-5--0-3-2--2-/7--3-2--3-5--5-5-5-|
|-3-2--2-----3-2--3-2--3-5--0-3-2--2-----3-2--3-5--5-5-5-|
pm                                                 . . .

VERSE:
|---------------------------------|
|---------------------------------|
|---9------9-------12-------12----|
|-9---XX-8---XX-11----XX-14----XX-|
|-7---XX-7---XX-10----XX-10----XX-|
|---------------------------------|

CHORUS:
|-----------------------------------------------------|
|-----------------------------------------------------|
|--------------4-4-4-0-0-5-5--------------4-4-4-0-0---|
|---0-0-0-0--------------------0-0-0-0--------------0-|
|-2---------3----------------2---------3--------------|
|-2---------3----------------2---------3--------------|

|-------------------------------------------------------|
|-------------------------------------------------------|
|--------------4-4-4-0-0-5-5----------------------------|
|---0-0-0-0---------------------------------------------|
|-2---------3----------------2--0-0-0-0--0-0-0-0-0--0-0-|
|-2---------3----------------2--0-0-0-0--0-0-0-0-0--0-0-|
pm                              . . . .  . . . . .  . .

BRIDGE:
|-----------------------------|
|-----------------------------|
|-----------------------------|
|-3-2-X-X-X-0-3-2-X-X-X-0-3-2-|
|-3-2-X-X-X-0-3-2-X-X-X-0-3-2-|
|-3-2-X-X-X-0-3-2-X-X-X-0-3-2-|

BRIDGE B:
|---------------------------|
|---------------------------|
|---------------------------|
|-5-5--5--5-5-5--5--5-5-5-5-|
|-5-5--5--5-5-5--5--5-5-5-5-|
|-5-5--5--5-5-5--5--5-5-5-5-|
pm                  . . .

BRIDGE B:
|---------------------|
|---------------------|
|---------------12----|
|-9--9-8--8-11-----14-|
|-7--7-7--7-10-----10-|
|---------------------|

VERSE 2: (palm mute) (* - play 1st time only)
|-----------------------------------------|
|-----------------------------------------|
|-----------------------------------------|
|-----------------------------------------|
|-----------------------------------------|
|-*0*-3-2--3-2--3-2--XX-3-2--3-2--3-5-5-5-|

VERSE 2 FILL:
|---|
|---|
|---|
|---|
|-2-|
|-2-|

VERSE 2B:
|--------------------------------------------------------|
|--------------------------------------------------------|
|--------------------------------------------------------|
|--------------------------------------------------------|
|-----------/7--------------------------/7---------------|
|-XX-3-2--2-----3-2--3-5--5-5--0-3-2--2-----3-2--3-5-5-5-|
pm   . .  .  .  . .  . .  . .  . . .  .  .  . .  . . . .

|-----------------------------------------------------|
|-----------------------------------------------------|
|-----------------------------------------------------|
|-----------------------------------------------------|
|--------/7--------------------------/7---------------|
|-3-2--2-----3-2--3-5--5-5--0-3-2--2-----3-2--3-5-5-5-|
pm. .  .  .  . .  . .  . .

INTERLUDE:
|----0--0------0--0------0--0-----0--0----------0----------0-----|
|---------0---------0---------0--------0-----1----1-----3----3---|
|--------------------------------------------2----------4------4-|
|-----------5-------------------5------------2----------4--------|
|-2---------3---------2---------3---------0----------2-----------|
|-2-------------------2------------------------------------------|

INTERLUDE 2: (gradually release palm mute)
|-------0------------------------------------|
|----1----1----------------------------------|
|----2-------4-4-4-4-4-4-4-4-4-4-4-4-4-4-4-4-|
|----2-------4-4-4-4-4-4-4-4-4-4-4-4-4-4-4-4-|
|-0----------2-2-2-2-2-2-2-2-2-2-2-2-2-2-2-2-|
|--------------------------------------------|


Important: The song above is NOT stored on the Chordie server. The original song is hosted at www.xguitar.com. Chordie works as a search engine and provides on-the-fly formatting. Chordie does not index songs against artists'/composers' will. To remove this song please click here.

This song is displayed as text-only. Transposing and tuning is only available for chordpro-songs.

Login - add to songbook

Rating click stars to rate

Layout
Accuracy

SHARE PAGE  




You need to log in to post comments