Guitar Tabs, Chords and Lyrics


Remember   Disturbed



Song: \"Remember\"
Artist: Disturbed
Album: Believe
Transcribed By: Bryan Bramlett (bryanmb87@aol.com)

Tuning: Drop D, 1/2 Step Down (Db,Ab,Db,Gb,Bb,Eb)

INTRO:
|----------------------------------------------------------|
|----------------------------------------------------------|
|----------------------------------------------------------|
|-0--2-3-8--2-0-2-3-7--2-3-2-3-0--2-3-8--2-0-2-3-7--0-2--3-|
|-0--2-3-8--2-0-2-3-7--2-3-2-3-0--2-3-8--2-0-2-3-7--0-2--3-|
|-0--2-3-8--2-0-2-3-7--2-3-2-3-0--2-3-8--2-0-2-3-7--0-2--3-|
pm   . .    . . . .    . . . .    . .    . . . .

VERSE:
|---------------------------------------------------------------|
|---------------------------------------------------------------|
|---------------------------------------------------------------|
|---------------------------------------------------------------|
|----------13----------12------------------------13----------12-|
|-0--12-15-----0-12-15-----0-12-15-0-15-0--12-15-----0-12-15----|

|---------------------------------------------------------------------|
|---------------------------------------------------------------------|
|---------------------------------------------------------------------|
|---------------------------------------------------------------------|
|----------13----------12------------------------13----------10-10-10-|
|-0--12-15-----0-12-15-----0-12-15-0-15-0--12-15-----0-12-15-10-10-10-|

CHORUS: (^ = bend 1/2 step, ^^ = bend 1 step)
|---------------------------------------------------------|
|---------------------------------------------------------|
|---------------------------------------------------------|
|---10-7---------------10-7---------------10-7------------|
|-8------10-8-7-5-3--8------10-8-7-5-3--8------10-8-7-5-3-|
|---------------------------------------------------------|

|----------------------------------------------------|
|----------------------------------------------------|
|--------------------5-5-5-5-5-5---------------------|
|---10-7-------------3-3-3-3-3-3-----5-5-3-3---------|
|-8------10-8-7-5-3--3-3-3-3-3-3-3-5---------5-5-3h5-|
|----------------------------------------------------|

|-----------------------------------------|
|-----------------------------------------|
|-----------------------------------------|
|---10-7----------------------------10-10-|
|-8------10-8-7-5/7-8-8-10-10-12-12-------|
|-----------------------------------------|

|----------------------------------------------------------------|
|----------------------------------------------------------------|
|-10-10-10-----10-10-10-----10-10--------10-10-10----10-10-10----|
|----------10-----------10--------10/12-----------12----------12-|
|----------------------------------------------------------------|
|----------------------------------------------------------------|

|------------------------------------------------------|
|------------------------------------------------------|
|-10-10--------12-14-12^---------------12-14-12^-12-10-|
|-------10/12------------12--10--12p10-----------------|
|------------------------------------------------------|
|------------------------------------------------------|

CHORUS END 1:
|--------------------------------------------------|
|--------------------------------------------------|
|-14^^(14)~~---------------------------------------|
|--------------12^^(12)~~--------------------------|
|---------------------------12^(12)~~--------------|
|---------------------------------------12^^(12)~~-|

VERSE 2:
|---------------------------------------------------------------|
|---------------------------------------------------------------|
|---------------------------------------------------------------|
|---------------------------------------------------------------|
|----------13----------12------------------------13----------12-|
|-0--12-15-----0-12-15-----0-12-15-0-15-0--12-15-----0-12-15----|
pm   .. ..     . .. ..     . .. .. . ..    .. ..     . .. ..

|---------------------------------------------------------------------|
|---------------------------------------------------------------------|
|---------------------------------------------------------------------|
|---------------------------------------------------------------------|
|----------13----------12------------------------13----------10-10-10-|
|-0--12-15-----0-12-15-----0-12-15-0-15-0--12-15-----0-12-15-10-10-10-|
pm   .. .. ..  . .. .. ..  . .. .. . ..    .. .. ..  . .. ..

CHORUS END 2:
|---------|
|---------|
|-14^^----|
|------12-|
|---------|
|---------|

BRIDGE:
|------------------------------------------------|
|------------------------------------------------|
|------------------------------------------------|
|-8---X-X-8/12--12--12-12--8--3-3-3-0--0--0--3-0-|
|-8---X-X-8/12--12--12-12--8--3-3-3-0--0--0--3-0-|
|-8---X-X-8/12--12--12-12--8--3-3-3-0--0--0--3-0-|

|---------------------------------------------|
|---------------------------------------------|
|---------------------------------------------|
|-8---X-X-8/12--12--12-12--8--3--0--0--0--0-0-|
|-8---X-X-8/12--12--12-12--8--3--0--0--0--0-0-|
|-8---X-X-8/12--12--12-12--8--3--0--0--0--0-0-|

|------------------------------------------------|
|------------------------------------------------|
|------------------------------------------------|
|-8---X-X-8/12--12--12-12--8--3-3-3-0--0--0--3-0-|
|-8---X-X-8/12--12--12-12--8--3-3-3-0--0--0--3-0-|
|-8---X-X-8/12--12--12-12--8--3-3-3-0--0--0--3-0-|

|----------------------------------|
|----------------------------------|
|----------------------------------|
|-5--5--5--5--5-5--2--2--2--2--2-2-|
|-5--5--5--5--5-5--2--2--2--2--2-2-|
|-5--5--5--5--5-5--2--2--2--2--2-2-|

INTERLUDE:
|-----------------------------------------------------------------|
|-----------------------------------------------------------------|
|-----------------------------------------------------------------|
|-----------------------------------------------------------------|
|-0-0-2-3-8-8-2-0-2-3-7-7-2-3-2-3-0-0-2-3-8-8-2-0-2-3-7-7-2-3-2-3-|
|-0-0-2-3-8-8-2-0-2-3-7-7-2-3-2-3-0-0-2-3-8-8-2-0-2-3-7-7-2-3-2-3-|
pm. . . .     . . . .     . . . . . . . .     . . . .     . . . .

CHORUS END 3:
|---------|
|---------|
|-14^^-14-|
|---------|
|---------|
|---------|

|----------------|
|-----------12^^-|
|-14^^-14--------|
|----------------|
|----------------|


Important: The song above is NOT stored on the Chordie server. The original song is hosted at www.xguitar.com. Chordie works as a search engine and provides on-the-fly formatting. Chordie does not index songs against artists/composers will. To remove this song please click here.

This song is displayed as text-only. Transposing and tuning is only available for chordpro-songs.

Login - add to songbook

Rating click stars to rate

Layout
Accuracy

SHARE PAGE  




You need to log in to post comments