Chordie logo


Gangbusters    Dog Eat Dog



Band - Dog Eat Dog
Song ? Gangbusters
Album - Amped
Tuning - standard
Tabbed by Ali roddie


______________________________________________________________
Intro

Pm ..........................
E|--------------------------------------------------------------|
B|--------------------------------------------------------------|
G|------5---------8----7----5-----------------------------------|
D|------5---------8----7----5-----------------------------------|
A|-0----3----0----6----5----3-----------------------------------|
E|--------------------------------------------------------------|

Verse
E|--------------------------------------------------------------|
B|--------------------------------------------------------------|
G|------5---------8----7----5-----------------------------------|
D|------5---------8----7----5-----------------------------------|
A|-0----3----0----6----5----3-----------------------------------|
E|--------------------------------------------------------------|


Bridge
       							                                                                                                Pickscrape
E|----------------------------------------------------------x~~~~~~-------------|
B|----------------------------------------------------------x~~~~~~~------------|
G|----9--8--9--8----9--8-----------2------2------2------2---x~~~~~~-------------|
D|----9--8--9--8----9--8--9--9-----2------2------2------2---x~~~~~~-------------|
A|-0--7--6--7--6--0-7--6--9--9-----0------0------0------0---x~~~~~~-------------|
E|------------------------7--7------------------------------x~~~~~~-------------|

Chorus

 PM...........          ...........	      ..........
E|------------------------------------------------------------------------------|
B|------------------------------------------------------------------------------|
G|---------------2---------------------2--------------------2-----7---7---5-----|
D|-5--5--5--5----2-------5--5--5--5----2------5--5--5--5----2-----7---7---5-----|
A|-5--5--5--5----0-------5--5--5--5----0------5--5--5--5----0-----5---5---3-----|
E|-3--3--3--3------------3--3--3--3-----------3--3--3--3------------------------|


Over Dub

E|--------------|
B|--------------|
G|------9~~-----|
D|--------------|
A|--------------|
E|--------------|



========================================================================
==                       TABLATURE EXPLANATION                        ==
========================================================================
----------                ----------                ----t---
----5h8--- Hammeron       ----(8)--- Ghost          ----6--- Tap
----------                ---------- Note           --------
----5p8--- Pulloff


----------                ----------                -x~~~~~------
----5/8--- Slide Up       -----x---- Dead           -x~~~~~------ Pick Scrape
----------                ---------- Note           -x~~~~~------
----5\8--- Slide Down

----------                ||------|| Repeat         --------
----5~~~-- Vibrato        ||*----*||                ---5^--- Bend
----------                ||*----*||                --------


Important: The song above is NOT stored on the Chordie server. The original song is hosted at www.xguitar.com. Chordie works as a search engine and provides on-the-fly formatting. Chordie does not index songs against artists/composers will. To remove this song please click here.

This song is displayed as text-only. Transposing and tuning is only available for chordpro-songs.

Login - add to songbook

Rating click stars to rate

Layout
Accuracy

SHARE PAGE  




You need to log in to post comments