Chordie logo

Fall Behind Me    Donnas



The Donnas - Fall Behind Me


Main riff:

E||-----------------------------|---------------------------|
B||-----------------------------|---------------13----------|
G||----------------12--10~------|---------------12b---10~---|
D||--0--10--12--0------------0--|----10--12--0--------------|
A||-----------------------------|---------------------------|
E||-----------------------------|---------------------------|



-----------------------------|-----------------------------|
-----------------------------|-----------------------------|
----------------12--10~------|---------------12b-12--10~---|
--0--10--12--0------------0--|----10--12--0----------------|
-----------------------------|-----------------------------|
-----------------------------|-----------------------------|


Verse:

------------------------|----------------------|
------------------------|----------------------|
--7----7----x--7--x--5b-|---------5b-----------|
--7----7----x--7--x--0--|----7----0----7--5----|
------------------------|----------------------|
------------------------|----------------------|



-----------------------|----------------------|
-----------------------|----------------------|
-------7--7----7----7--|----7-----------------|
-------7--7----7----7--|----7-----------------|
--8--------------------|---------10b-----8----|
-----------------------|----------------------|



-----------------------|----------------------|
-----------------------|----------------------|
-------7--7----7----5b-|----------------------|
-------7--7----7----0--|----7-----------------|
--7--------------------|---------10b-----8----|
-----------------------|----------------------|



----------------------|----------------------|
----------------------|----------------------|
-----------------2----|--2-------------------|
--0--------x--x--3----|--2----2----2--2------|
----------------------|-------3----2--2------|
----------------------|----------------------|


Chorus:

-----------------------|-------------------------|
-----------------------|-------------------------|
--7--------7--7--7--7--|----7--7--7--7--7--7--7--|
--7--------7--7--7--7--|----7--7--7--7--7--7--7--|
--5--------5--5--5--5--|----5--5--5--5--5--5--5--|
-----------------------|-------------------------|



------------------------|-------------------------|
------------------------|-------------------------|
--5----5----5--5--5--5--|----5--5--5--5--5--5--5--|
--5----5----5--5--5--5--|----5--5--5--5--5--5--5--|
--3----3----3--3--3--3--|----3--3--3--3--3--3--3--|
------------------------|-------------------------|



------------------------|-----------------------|
------------------------|-----------------------|
--0----0-------0-----0--|----0----0----0--0--0--|
--0----0----x--0--x--0--|----0----0----0--0--0--|
--2----2----x--2--x--2--|----2----2----2--2--2--|
------------------------|-----------------------|



-------------------------|-------------------------|
-------------------------|-------------------------|
--2----2--2--2--2--2--5--|----5--5--5--5--5--5--5--|
--3----3--3--3--3--3--5--|----5--5--5--5--5--5--5--|
--3----3--3--3--3--3--3--|----3--3--3--3--3--3--3--|
--1----1--1--1--1--1-----|-------------------------|


Solo:

--------------------------|---------------------|
--------------------------|---------------------|
--------------5-----5--7b-|----7----5~----------|
--------5--7-----7--------|----------------7~---|
--5--7--------------------|---------------------|
--------------------------|---------------------|



--------------------------|---------------------|
--------------------------|----8----------------|
--------------5-----5--7b-|---------7r-----7b---|
--------5--7-----7--------|---------------------|
--5--7--------------------|---------------------|

--------------------------|---------------------|



----------------------------------|------------------------|
----------------------------------|------------------------|
------------------17------17--19b-|----19----17~-----19r---|
----------17--19------19----------|------------------------|
-/17--19--------------------------|------------------------|
----------------------------------|------------------------|



----------------------------|----------------------------|
----------------------------|----------------------------|
------17------19--17~-------|----------------------------|
----------19------------19--|----17----------------------|
----------------------------|--------19--18--17--15~-----|
----------------------------|----------------------------|


Bridge:

------------------------|-------0------------|
------------------------|-------0------------|
------------------------|--------------------|
--2----2----2--2--2-----|--------------------|
--0----0----0--0--0--3--|----5---------------|
------------------------|--------------------|



------------------------|------------------------|
------------------------|------------------------|
------------------------|------------------------|
--2----2----2--2--2--2--|----2--2--2--2--2--2----|
--0----0----0--0--0--0--|----0--0--0--0--0--0----|
------------------------|------------------------|



----------------------|-------------------------||
----------------------|-------------------------||
--2----2--------------|--------------5/-7--7\---||
--3----2----2----2----|--3--3--3--3--3/-5--5\---||
------------3----2----|-------------------------||


Important: The song above is NOT stored on the Chordie server. The original song is hosted at www.xguitar.com. Chordie works as a search engine and provides on-the-fly formatting. Chordie does not index songs against artists/composers will. To remove this song please click here.

This song is displayed as text-only. Transposing and tuning is only available for chordpro-songs.

Login - add to songbook

Rating click stars to rate

Layout
Accuracy

SHARE PAGE  

You need to log in to post comments