Guitar Tabs, Chords and Lyrics


All Messed Up    Donnas



Intro
e|-------------------------------------|
B|-------------------------------------|
G|-------------------------------------|
D|----12—-9—-7--9—-7-----7-------------|
A|-9—-10—-7—-5--7—-5—-7—-5—-7—-9--7—-9-|
E|-7------------------5-----5—-7--5—-7-|

e|----------------------------|
B|----------------------------|
G|----------------------------|
D|---12-9-7-9-7---7-----------|
A|-9-10-7-5-7-5-7-5-7-9-7-9-7-|
E|-7------------5---5-7-5-7-5-|

e|--------------------------|
B|--------------------------|
G|--------------------------|
D|--------------------------|
A|-9-9-9-9-12-12-12-7-9-7-9-|
E|-7-7-7-7-10-10-10-5-7-5-7-|

Ending
e|---------|
B|---------|
G|---------|
D|---------|
A|-9-12-7--|


Important: The song above is NOT stored on the Chordie server. The original song is hosted at www.xguitar.com. Chordie works as a search engine and provides on-the-fly formatting. Chordie does not index songs against artists'/composers' will. To remove this song please click here.

This song is displayed as text-only. Transposing and tuning is only available for chordpro-songs.

Login - add to songbook

Rating click stars to rate

Layout
Accuracy

SHARE PAGE  




You need to log in to post comments