Guitar Tabs, Chords and Lyrics


F**k the World (F.T.W.)    Dope



Tuning: Drop C# (C# G# C# F# A# D#)
i have no idea what's being played in the solo... any help would be great

Intro
D#|-----|
A#|-----|
F#|-----|
C#|-2-3-|
G#|-2-3-|
C#|-2-3-|

Chorus
D#|--------------|-----------------|
A#|--------------|-----------------|
F#|----------4-4-|-----------------|
C#|-3-3-3-3--4-4-|-3-3-2-2-1-1-2-2-|
G#|-3-3-3-3--2-2-|-3-3-2-2-1-1-2-2-|
C#|-3-3-3-3------|-3-3-2-2-1-1-2-2-|

Verse
D#|---------------|--------------|
A#|---------------|--------------|
F#|---------------|--------------|
C#|---------------|--------------|
G#|---------------|----------2-2-|
C#|-3-3-3-3--2--1-|-3-3-3-3------|

Outro
D#|---|
A#|---|
F#|---|
C#|-3-|
G#|-3-|
C#|-3-|

Song Structure
Drums
Intro
Chorus
Intro
Verse
Chorus
Intro
Verse
Chorus
Intro
Fcuk You And Fuck The World
Chorus


Important: The song above is NOT stored on the Chordie server. The original song is hosted at www.xguitar.com. Chordie works as a search engine and provides on-the-fly formatting. Chordie does not index songs against artists'/composers' will. To remove this song please click here.

This song is displayed as text-only. Transposing and tuning is only available for chordpro-songs.

Login - add to songbook

Rating click stars to rate

Layout
Accuracy

SHARE PAGE  




You need to log in to post comments