Chordie logo


Falling Away    Dope



Dope - Falling Away
Tuning: Drop D 1/2 a step (low to high): C#, G#, C#, F#, A#, D#
Tabbed by HATEDMaggot666

h= hammer on
/ = slide
*= palm muted
Intro
--------------------------------------
--------------------------------------
--------------------------------------
--------------------------------------
-0-1--0-1-0-1/3-1-1-1-----------------
-0-1--0-1-0-1/3-1-1-1-----------------

Pre-Chorus
-----------10-------------------------
-------------------------8/9----------
-------7----------7-------------------
--------------------------------------
--------------------------------------
--------------------------------------

Play once before Chorus 1 time
--------------------------------------
--------------------------------------
--------------------------------------
--------------------------------------
--5-h-6---3-0-------------------------
--5-h-6---3-0-------------------------


Chorus
--------------------------------------
--------------------------------------
--------------------------------------
--------------------------------------
-0-1--3-1------0-1--8-1--------------- play these notes a few times each
-0-1--3-1------0-1--8-1--------------- (listen to track for exact # of times)

Bridge
--------------------------------------
--------------------------------------
--------------------------------------
--------------------------------------
-5-h-6--3------------------5-h-6/3----
-5-h-6--3-0-0-0-0-0-0-0----5-h-6/3---- (play palm muted 0 a few times)
          *************

--------------------------------------
--------------------------------------
--------------------------------------
--------------------------------------
--1-h-3/1-----------------------------
--1-h-3/1----------------------------- play during bridge 1 time




Important: The song above is NOT stored on the Chordie server. The original song is hosted at www.xguitar.com. Chordie works as a search engine and provides on-the-fly formatting. Chordie does not index songs against artists/composers will. To remove this song please click here.

This song is displayed as text-only. Transposing and tuning is only available for chordpro-songs.

Login - add to songbook

Rating click stars to rate

Layout
Accuracy

SHARE PAGE  




You need to log in to post comments