Guitar Tabs, Chords and Lyrics


I Am    Dope



Artist:Dope
Song:I Am
Album: Group Therapy
Tabbed By Spyder23

Wat up Iam Chris Hernandez I'm 16 and this is my first Tab Thats the new Sick Dope Song
This Sounds just about rite tell me how it sounds Spyder_ex419@yahoo.com

Keyboard
e|---0-0-7-0-0-7-0-0-7-0-0-8---|
B|-----------------------------|
G|-----------------------------|
D|-----------------------------|
A|-----------------------------|
D|-----------------------------|

Verse/Chorus
e|------------------------|
B|------------------------|
G|------------------------|
D|---7---10---5---0-------|
A|---7---10---5---0-------|
D|---7---10---5---0-------|

Pre Chours
e|------------------------|
B|------------------------|
G|------------------------|
D|--4---------------------|
A|--4---------------------|
D|--4---------------------|

Pre Chours (The Other Times)
e|------------------------|
B|------------------------|
G|------------------------|
D|--4---0---4-------------|
A|--4---0---4-------------|
D|--4---0---4-------------|

"Iam What Iam" Part
e|------------------------|
B|------------------------|
G|------------------------|
D|--10---7---8------------|
A|--10---7---8------------|


Important: The song above is NOT stored on the Chordie server. The original song is hosted at www.xguitar.com. Chordie works as a search engine and provides on-the-fly formatting. Chordie does not index songs against artists/composers will. To remove this song please click here.

This song is displayed as text-only. Transposing and tuning is only available for chordpro-songs.

Login - add to songbook

Rating click stars to rate

Layout
Accuracy

Jango Player

SHARE PAGE  




You need to log in to post comments