Guitar Tabs, Chords and Lyrics


Hail the Leaf    Down



Down
Hail The Leaf

i play drop 1 1/2 steps Db, Gb, Cb, Fb, Ab, db (low to high)

intro/verse
d-----------------------------------------------------------
A-----------------------------------------------------------
F-----------------------------------------------------------
C--/10-10-10\\9-9-9//12-12-12~~---/10-10-10\\9-9-9\\6-6-6~~-
G---0---------0------0-------------0---------0------0-------
D-----------------------------------------------------------

Chorus
d-----------------------------------------------------------------------------
A-----------------------------------------------------------------------------
F-----------------------------------------------------------------------------
C--------2-----2------0t2----------2------2--0t2------------2A.H---2A.H---0t2-
G------------------------------------------------0t2--------------------------
D--0-0-3---0-3----0-3--------0-0-3----0-3---0----------0-0-3----0-3---0-3-----
pm.....    ..     ..         ....     ..    .          ....     ..    ..

d----------------------------
A----------------------------
F----------------------------
C--------2A.H---5-5-5-3-3-3--
G---------------5-5-5-3-3-3--
D--0-0-3--------3-3-3-1-1-1--
pm......        ...........

Variation on the verse riff
d-------------------------------
A-------------------------------
F-------------------------------
C--10-10-10//12-12-12-//14~~~---
G--0---------0------------------
D-------------------------------

After Bong Hit Riff
d-------------------------------------------
A-------------------------------------------
F-------------------------------------------  play the a few times
C-------------------------------------------
G--7-7-7-5-5-5------------7-5-5-5-----------
D--5-5-5-3-3-3-6////\\\\\-5-3-3-3-6///////--

d----------------------------------------------------------
A---------------------------------------------------------- then this a few times
F----------------------------------------------------------
C--12-12-12-10-10-10------------12-10-10-10----------------
G--10-10-10--8--8--8-11////\\\\-10--8--8--8-11///////------
D----------------------------------------------------------

d------------------------------------------------------
A------------------------------------------------------ not 100% sure on how many
F------------------------------------------------------ times to play that, but i'm
C-----------------------------------------------xxxxx-- close....
G--2-2-2-2-2-2-2-2-2-2-2-2-2-2-2-2-2-2-2-2-2-2--xxxxx--
D--0-0-0-0-0-0-0-0-0-0-0-0-0-0-0-0-0-0-0-0-0-0--xxxxx--

ending riff
d---------------------------------------
F--------------------------------------- rif, and not again.
D---0-0-0-0-0-0-0-0-0-0-0-0-0----0-0----

d----------------------------------------------------------------
A---------------------------------------8b-8b-8br-6-------------- play 4th time
F---------------------------------------------------7b-7b-7brp5--
C-----------9---------9-----7//9---7-----------------------------
G-----------7---------7-----5//7---5-----------------------------
D---0-0-0-0-0-0-0-0-0-0-0-0-0----0-0-----------------------------

A.H= Artificial Harmonics
t= Trill (fast hammer-on and pull-offs)
pm= palm mute
x= muted string
b= bend
br= bend then release
brp= bend, release, then pull-off

i think thats it........


Important: The song above is NOT stored on the Chordie server. The original song is hosted at www.xguitar.com. Chordie works as a search engine and provides on-the-fly formatting. Chordie does not index songs against artists/composers will. To remove this song please click here.

This song is displayed as text-only. Transposing and tuning is only available for chordpro-songs.

Login - add to songbook

Rating click stars to rate

Layout
Accuracy

SHARE PAGE  




You need to log in to post comments