Guitar Tabs, Chords and Lyrics


Jail    Down



E|----------------------------------------------------------------||
B|----------------------------------------------------------------||
G|----------------------------------------------------------------||
D|------4---------4---------4----------------2---------2----------||
A|--4-----4---4-----4---4-----4---4------2-----2---2-----2--------||
D|4---4-----4---4-----4---4-----4---4\-2---2-----2---2-----2------||


E|----------------------------------------------------------------||
B|----------------------------------------------------------------||
G|----------------------------------------------------------------||
D|----2-----------------------------------------------------------||
A|2-----2---2-----------------------------------------------------||
D|--2-----2---2\4-------------------------------------------------||
  do all that a couple of times then do



E|----------------------------------------------------------------||
B|----------------------------------------------------------------||
G|----------------------------------------------------------------||
D|----------------------------------------------------------------||
A|----------------------------------------------------------------||


Important: The song above is NOT stored on the Chordie server. The original song is hosted at www.xguitar.com. Chordie works as a search engine and provides on-the-fly formatting. Chordie does not index songs against artists'/composers' will. To remove this song please click here.

This song is displayed as text-only. Transposing and tuning is only available for chordpro-songs.

Login - add to songbook

Rating click stars to rate

Layout
Accuracy

Jango Player

SHARE PAGE  




You need to log in to post comments