A Change of Seasons

Dream Theater

------ 


ACOS is written for a seven string guitar,But the
tranlation here alows you to play it with a six string. With a 24 fret guitar you can play the whole song, and if you
only have a 22 fret guitar you will only have to modify very
few things (a couple of runs in the guitar solos). So I think
this will be very useful for most guitarists, specially for
beginners. The method I used is to transpose the song up 5
half-tones (one string), so don't forget that the key of the
song has changed from Bm to Em, and, therefore the notes are
not the same.In this file, I've just tabbed the first part of
the song.
w/clean sound
Let ring
4:4
E-|-------------------------|-------------------------|-------------------------|-
B-|-------------------------|-------------------------|-------------------------|-
G-|----------5-----------4--|-------------------------|-------0-----------0-----|-
D-|-------7-----------7-----|-------5h-7-----2--5/-7--|----7-----7-----5-----5--|-
A-|----7-----------7--------|----7--------------------|-5-----------3-----------|-
E-|-0-----------0-----------|-0-----------0-----------|-------------------------|-
E|-------------------------|-------------------------|-------------------------|-
B|-------------------------|-------------------------|-------------------------|-
G|-------2--0--------------|----------5-----------4--|-------------------------|-
D|----2--------------0-----|-------7-----------7-----|-------5h-7-----2--5/-7--|-
A|-0--------------2--------|----7-----------7--------|----7--------------------|-
E|-------------3--------3--|-0-----------0-----------|-0-----------0-----------|-
E|-------------------------|-------------------------|-------------------------|-
B|-------------------------|-------------------------|-------------------------|-
G|-------0-----------0-----|-------2-----------------|----------5-----------4--|-
D|----7-----7-----5-----5--|----2-----2--------3-----|-------7-----------7-----|-
A|-5-----------3-----------|-0--------------3--------|----7-----------7--------|-
E|-------------------------|-------------1--------1--|-0-----------0-----------|-
E|-------------------------|-------------------------|-------------------------|-
B|-------------------------|-------------------------|-------------------------|-
G|-------------------------|-------0-----------0-----|-------2--0--------------|-
D|--------5h-7-----2--5/-7-|----7-----7-----5-----5--|----2--------------0-----|-
A|-----7-------------------|-5-----------3-----------|-0--------------2--------|-
E|--0-----------0----------|-------------------------|-------------3--------3--|-
E|-------------------------|-------------------------|-------------------------|-
B|-------------------------|-------------------------|-------------------------|-
G|----------5-----------4--|-------------------------|-------0-----------0-----|-
D|-------7-----------7-----|-------5h-7-----2--5/-7--|----7-----7-----5-----5--|-
A|----7-----------7--------|----7--------------------|-5-----------3-----------|-
E|-0-----------0-----------|-0-----------0-----------|-------------------------|-
E|-------------------------|-------------5-----------|----------3h-5-----3-----|-
B|-------------------------|----0h-3--5--------5-----|-------3-----------------|-
G|-------2-----------------|-------------------------|----0--------------------|-
D|----2-----2--------3-----|-------------------------|-------------------------|-
A|-0--------------3--------|-2--------------2-----2--|-3--------------3-----3--|-
E|-------------1--------1--|-------------------------|-------------------------|-
E|-------0-----------2-----|-------------------------|--------------5----------|-
B|----------------0-----0--|-------0-----------3-----|-----0h-3--5--------5----|-
G|----2-----2--------------|----------------0-----0--|-------------------------|-
D|-0-----------2-----------|----2-----2--------------|-------------------------|-
A|-------------------------|-0-----------3-----------|--2--------------2-----2-|-
E|-------------------------|-------------------------|-------------------------|-
E|----------3h-5-----3-----|-------0-----------2-----|-------------------------|-
B|-------3-----------------|----------------0-----0--|-------0-----------3-----|-
G|----0--------------------|----2-----2--------------|----------------0-----0--|-
D|-------------------------|-0-----------2-----------|----2-----2--------------|-
A|-3--------------3-----3--|-------------------------|-0-----------3-----------|-
E|-------------------------|-------------------------|-------------------------|- 

7:8
E|-------------------------------|------------------------------|-----------------
B|---------0---1-----------------|---------0---1----------------|---------0---1---
G|-----0----------------7---5p4--|-----0------------------------|-----0-----------
D|---2-------------5/-7----------|---2------------------5----7--|---2-------------
A|-------------------------------|--------------------5------7--|-----------------
E|-0-----0---0---0--------0------|-0-----0---0---0--3-----3-----|-0-----0---0---0- 

w/dist.
7:4
E|---------------|------------------------------|--------------------------------
B|---------------|---------0---1----------------|--------------------------------
G|------7---5p4--|-----0------------------------|--------------------------------
D|-5/-7----------|---2------------------5----7--|----9--10-----7--9-----5--7-----
A|---------------|--------------------5------7--|--------------------------------
E|--------0------|-0-----0---0---0--3-----3-----|-0---------0--------0--------0--
E|-------------|--------------------------------------------|--------------------
B|-------------|--------------------------------------------|--------------------
G|-------------|--------------------------------------3-----|--------------------
D|-4--5-----2--|----9--10-----7--9-----5--7-----4--5-----0--|----9--10-----7--9--
A|-------------|--------------------------------------------|--------------------
E|-------0-----|-0---------0--------0--------0--------------|-0---------0-------- 

4:4
E|-------------------------|--------------------------------------------|----------
B|-------------------------|--------------------------------------------|----------
G|-------------------------|--------------------------------------3-----|----------
D|----5--7-----4--5-----2--|----9--10-----7--9-----5--7-----4--5-----0--|----------
A|-------------------------|--------------------------------------------|----9--10-
E|-0--------0--------0-----|-0---------0--------0--------0--------------|-0--7---8- 

3:4
E|-----------------|-----------------------|--------------------------|----------
B|-----------------|-----------------------|--------------------------|----------
G|-----------------|-----------------------|--------------------------|----------
D|-----------------|-----------------------|--------------------------|----------
A|-----7--9-----5--|-7-----4--5-----5------|----9--10-----7--9-----5--|--7-----4-
E|--0--5--7--0--3--|-5--0--2--3--0--3------|-0--7---8--0--5--7--0--3--|--5--0--2- 

4:4
E|----------|--------------------------|-----------------------|-----------------
B|----------|--------------------------|-----------------------|-----------------
G|----------|--------------------------|-----------------------|-----------------
D|-----3----|--------------------------|-----------------------|-----------------
A|--5--1----|----9--10-----7--9-----5--|-7-----4--5-----5------|----9--10-----7--
E|--3-------|-0--7---8--0--5--7--0--3--|-5--0--2--3--0--3------|-0--7---8--0--5-- 

3:4
E|----------|-------------------|
B|----------|-------------------|
G|----------|-------------------|
D|----------|--------------3----|
A|-9-----5--|--7-----4--5--1----|
E|-7--0--3--|--5--0--2--3-------| 

7:4 a.h.
E|--||------------------------------|------------------------------||------------|-
B|--||*-----------------------------|-----------------------------*||------------|-
G|--||------------------------------|------------------------------||------------|-
D|--||------------------------------|------------------------------||-2--2---2-2-|-
E|--||--0-7-8-0-5-7-0-3-5-0-2-3-0-3-|-0-7-8-0-5-7-0-3-5-0-2-3------||-0--0---0-0-|- 

Let ring
E|------------||-----7------10-----|----7-------------||------0------|-------0-----
B|------------||*-------10---------|-------10--------*||---10----10--|----10----10-
G|------------||--9-------------12-|-9---------12-----||-9-----------|--7----------
D|-2--2-------||-------------------|--------------12--||-------------|-------------
A|-2--2-------||*------------------|-----------------*||-------------|-------------
E|-0--0-------||-------------------|------------------||-------------|-------------
E|--|-----0------|------8--10--|---------------------|----------------------------
B|--|--------10--|----8--------|---------------------|----------------------------
G|--|---9--------|-------------|---------------------|----------------------------
D|--|-7----------|-10----------|---2-0-2--0--2-5-2-0-|--------2-0-2--0--2---------
A|--|------------|-------------|---------------------|------------------------0-2-
E|--|------------|-------------|-0-------------------|------0-------------0-3----- 

4:4 9:8
E-|------------------------|-----------------------!-------------------|-----------
B-|------------------------|-----------------------!-------------------|-----------
G-|----------------0p2p0---|-----------------------!-------------------|-----------
D-|---2-0-2--0--2--------2-|---2-0-2--0--2---------!-------------------|---------0-
A-|------------------------|-------------------0-2-!-----2---4-2-2---5-|---4-0-4---
E-|-0----------------------|-0-------------0-3-----!-2-2---2-------2---|-2--------- 

4:4 9:8 4:4
E|---------|---------------------|---------------------|-----------------------|--
B|---------|---------------------|---------------------|-----------------------|--
G|-----2-0-|---------------------|--6--------------2-0-|---------4---6-4-4---7-|--
D|-2-4-----|---------------------|----4------0-2-4-----|---4-4-4---4-------4---|--
A|---------|-------2---4-2-2---5-|-------0-4-----------|-----------------------|--
E|---------|---2-2---2-------2---|---------------------|-----------------------|-- 

9:9 4:4 9:8 4:4
E|-------------------|---------------------|-----------------------|--------------
B|-------------------|---------------------|-----------------------|--------------
G|-6-------------2-0-|------7---9-7-7---10-|----9------------------|------7---9-7-
D|---4-----0-2-4-----|--7-7---7-------7----|--7---10--------7-10-8-|--7-7---7-----
A|-----0-4-----------|---------------------|---------7-8-10--------|--------------
E|-------------------|---------------------|-----------------------|-------------- 

9:8 4:4 9:8 4:4
E|--------|---------------------|-------------------|--------------------|----------
B|--------|---------------------|-------------------|--------------------|----------
G|-7---10-|----9----------------|-------------------|--------------------|----------
D|---7----|--7------------------|-----0---2-0-0---3-|----2---2-3-5-------|----------
A|--------|--------------0-3-1--|-0-0---0-------0---|--0---3-------0-3-1-|------2---
E|--------|------8-0-1-3--------|-------------------|--------------------|--2-2---2- 

9:8 4:4 9:8 4:4
E|-----------|--------------------|--------------------|--------------------|-----
B|-----------|--------------------|--------------------|--------------------|-----
G|-----------|----------------2-0-|--------------------|--6-------------2-0-|-----
D|-----------|----------0-2-4-----|--------------------|----4-----0-2-4-----|---4-
A|-4-2-2---5-|----4-0-4-----------|------2---4-2-2---5-|------0-4-----------|-----
E|-------2---|--2-----------------|--2-2---2-------2---|--------------------|----- 

9:8 4:4 9:8
E|-----------------|--------------------|---------------------|---------------------
B|-----------------|--------------------|---------------------|---------------------
G|---4---6-4-4---7-|--6-------------2-0-|------7---9-7-7---10-|----9----------------
D|-4---4-------4---|----4-----0-2-4-----|--7-7---7-------7----|--7---10--------7-10-
A|-----------------|------0-4-----------|---------------------|---------7-8-10------
E|-----------------|--------------------|---------------------|--------------------- 

4:4 9:8 4:4 9:8
E|---|---------------------|--------------------|--------------------|------------
B|---|---------------------|--------------------|--------------------|------------
G|---|------7---9-7-7---10-|----9---------------|--------------------|------------
D|-8-|--7-7---7-------7----|--7-----------------|------0---2-0-0---3-|----2---2-3-
A|---|---------------------|--------------0-3-1-|--0-0---0-------0---|--0---3-----
E|---|---------------------|------8-0-1-3-------|--------------------|------------ 

4:4 9:8 4:4 9:8 4:4
E|---------|----------|----------------|----------|----------------|----------|---
B|---------|----------|----------------|--------3-|----------------|----------|---
G|---------|----------|------------2-0-|--------2-|------------2-0-|----------|-2-
D|-5-------|----------|--2---0-2-4-----|--------0-|-2----0-2-4-----|----------|-2-
A|---0-3-1-|--4-----5-|--0-4-----------|--4-----0-|-2--4-----------|--4-----5-|-0-
E|---------|--2-----3-|----------------|--2-------|-0--------------|--2-----3-|--- 

 321321
                                                      2:4      9:8      
E|--------------|---------------|--------------13-16-|--15~---|---16-15-13----------
B|--------------|----0-3-2--6-9-|-8--12-15-14--------|--------|------------15-14-12-
G|----------2-1-|-0-------------|--------------------|--------|---------------------
D|----0-2-4-----|---------------|--------------------|--------|---------------------
A|--4-----------|---------------|--------------------|--------|---------------------
E|--------------|---------------|--------------------|--------|--------------------- 

4 3 1 4 3 1 4 2 1 3 2 4:4
E|------------------------------|------------------|------------|-----------------
B|------------------------------|------------------|------------|-----------------
G|-13-12-10---------------------|------------------|----------3-|-----------------
D|----------12----9-------------|--------------4-4-|-4--5--2--2-|-4--5------5-----
A|-------------11---11-9-8------|--9---9-9-9---2-2-|-2--2--0----|-2--2--4-4---3-3-
E|-------------------------10-9-|--7---7-7-7-------|------------|-----------------
E|---|------------|-------------------|-------------------0-5-0---0-6-0-|---------
B|---|------------|-------------------|-5-7-5-0-8-7-5-0-2---------------|-5-7-5-0-
G|---|----------3-|-------------------|-------------------------3-------|---------
D|-5-|-4--5--2--2-|-4--5------5-----5-|---------------------------------|---------
A|---|-2--2--0----|-2--2--4-4---3-3---|---------------------------------|---------
E|---|------------|-------------------|---------------------------------|---------
E|-----------3----3--|-------------------0-5-0---0-6-0-|--------------------------
B|-8-7-5-0-2----1----|-5-7-5-0-8-7-5-0-2---------------|-5-7-5-0-8-7-5-0----------
G|-------------------|-------------------------3-------|------------------------9-
D|-------------------|---------------------------------|-----------------7-9-10---
A|-------------------|---------------------------------|--------------------------
E|-------------------|---------------------------------|--------------------------
E|-------7-|-0------5-7~|---5h7p5----5-|------------------|-----------|-0-----------
B|-----7---|------------|---------8----|--8-7--5h7p5----5-|-----------|----------17-
G|-7-9-----|------------|--------------|--------------5---|--7-5-4----|------/14----
D|---------|------------|--------------|------------------|-----------|-------------
A|---------|------------|--------------|------------------|-----------|-------------
E|---------|------------|--------------|------------------|-----------|-------------
E|----17-17/19-|-----19-17-15-17--|--15----------------|---------------*|-
B|-------------|------------------|-----19-17---12-13--|-12------------*|-
G|-14----------|------------------|--------------------|----14---------*|-
D|-------------|------------------|--------------------|-------15~-----*|-
A|-------------|------------------|--------------------|---------------*|-
E|-------------|------------------|--------------------|---------------*|- 

Ethan Tucker
s-Dream Theater
Legend
------ 

h = hammer-on
p = pull-off
b = bend
r = bend release
/ = slide up/down
<5> = natural harmonic
(5) = artifical harmonic
~ = vibrato
tr = trill
ACOS is written for a seven string guitar,But the
tranlation here alows you to play it with a six string. With a 24 fret guitar you can play the whole song, and if you
only have a 22 fret guitar you will only have to modify very
few things (a couple of runs in the guitar solos). So I think
this will be very useful for most guitarists, specially for
beginners. The method I used is to transpose the song up 5
half-tones (one string), so don't forget that the key of the
song has changed from Bm to Em, and, therefore the notes are
not the same.In this file, I've just tabbed the first part of
the song.
w/clean sound
Let ring
4:4
E-|-------------------------|-------------------------|-------------------------|-
B-|-------------------------|-------------------------|-------------------------|-
G-|----------5-----------4--|-------------------------|-------0-----------0-----|-
D-|-------7-----------7-----|-------5h-7-----2--5/-7--|----7-----7-----5-----5--|-
A-|----7-----------7--------|----7--------------------|-5-----------3-----------|-
E-|-0-----------0-----------|-0-----------0-----------|-------------------------|-
E|-------------------------|-------------------------|-------------------------|-
B|-------------------------|-------------------------|-------------------------|-
G|-------2--0--------------|----------5-----------4--|-------------------------|-
D|----2--------------0-----|-------7-----------7-----|-------5h-7-----2--5/-7--|-
A|-0--------------2--------|----7-----------7--------|----7--------------------|-
E|-------------3--------3--|-0-----------0-----------|-0-----------0-----------|-
E|-------------------------|-------------------------|-------------------------|-
B|-------------------------|-------------------------|-------------------------|-
G|-------0-----------0-----|-------2-----------------|----------5-----------4--|-
D|----7-----7-----5-----5--|----2-----2--------3-----|-------7-----------7-----|-
A|-5-----------3-----------|-0--------------3--------|----7-----------7--------|-
E|-------------------------|-------------1--------1--|-0-----------0-----------|-
E|-------------------------|-------------------------|-------------------------|-
B|-------------------------|-------------------------|-------------------------|-
G|-------------------------|-------0-----------0-----|-------2--0--------------|-
D|--------5h-7-----2--5/-7-|----7-----7-----5-----5--|----2--------------0-----|-
A|-----7-------------------|-5-----------3-----------|-0--------------2--------|-
E|--0-----------0----------|-------------------------|-------------3--------3--|-
E|-------------------------|-------------------------|-------------------------|-
B|-------------------------|-------------------------|-------------------------|-
G|----------5-----------4--|-------------------------|-------0-----------0-----|-
D|-------7-----------7-----|-------5h-7-----2--5/-7--|----7-----7-----5-----5--|-
A|----7-----------7--------|----7--------------------|-5-----------3-----------|-
E|-0-----------0-----------|-0-----------0-----------|-------------------------|-
E|-------------------------|-------------5-----------|----------3h-5-----3-----|-
B|-------------------------|----0h-3--5--------5-----|-------3-----------------|-
G|-------2-----------------|-------------------------|----0--------------------|-
D|----2-----2--------3-----|-------------------------|-------------------------|-
A|-0--------------3--------|-2--------------2-----2--|-3--------------3-----3--|-
E|-------------1--------1--|-------------------------|-------------------------|-
E|-------0-----------2-----|-------------------------|--------------5----------|-
B|----------------0-----0--|-------0-----------3-----|-----0h-3--5--------5----|-
G|----2-----2--------------|----------------0-----0--|-------------------------|-
D|-0-----------2-----------|----2-----2--------------|-------------------------|-
A|-------------------------|-0-----------3-----------|--2--------------2-----2-|-
E|-------------------------|-------------------------|-------------------------|-
E|----------3h-5-----3-----|-------0-----------2-----|-------------------------|-
B|-------3-----------------|----------------0-----0--|-------0-----------3-----|-
G|----0--------------------|----2-----2--------------|----------------0-----0--|-
D|-------------------------|-0-----------2-----------|----2-----2--------------|-
A|-3--------------3-----3--|-------------------------|-0-----------3-----------|-
E|-------------------------|-------------------------|-------------------------|- 

7:8
E|-------------------------------|------------------------------|-----------------
B|---------0---1-----------------|---------0---1----------------|---------0---1---
G|-----0----------------7---5p4--|-----0------------------------|-----0-----------
D|---2-------------5/-7----------|---2------------------5----7--|---2-------------
A|-------------------------------|--------------------5------7--|-----------------
E|-0-----0---0---0--------0------|-0-----0---0---0--3-----3-----|-0-----0---0---0- 

w/dist.
7:4
E|---------------|------------------------------|--------------------------------
B|---------------|---------0---1----------------|--------------------------------
G|------7---5p4--|-----0------------------------|--------------------------------
D|-5/-7----------|---2------------------5----7--|----9--10-----7--9-----5--7-----
A|---------------|--------------------5------7--|--------------------------------
E|--------0------|-0-----0---0---0--3-----3-----|-0---------0--------0--------0--
E|-------------|--------------------------------------------|--------------------
B|-------------|--------------------------------------------|--------------------
G|-------------|--------------------------------------3-----|--------------------
D|-4--5-----2--|----9--10-----7--9-----5--7-----4--5-----0--|----9--10-----7--9--
A|-------------|--------------------------------------------|--------------------
E|-------0-----|-0---------0--------0--------0--------------|-0---------0-------- 

4:4
E|-------------------------|--------------------------------------------|----------
B|-------------------------|--------------------------------------------|----------
G|-------------------------|--------------------------------------3-----|----------
D|----5--7-----4--5-----2--|----9--10-----7--9-----5--7-----4--5-----0--|----------
A|-------------------------|--------------------------------------------|----9--10-
E|-0--------0--------0-----|-0---------0--------0--------0--------------|-0--7---8- 

3:4
E|-----------------|-----------------------|--------------------------|----------
B|-----------------|-----------------------|--------------------------|----------
G|-----------------|-----------------------|--------------------------|----------
D|-----------------|-----------------------|--------------------------|----------
A|-----7--9-----5--|-7-----4--5-----5------|----9--10-----7--9-----5--|--7-----4-
E|--0--5--7--0--3--|-5--0--2--3--0--3------|-0--7---8--0--5--7--0--3--|--5--0--2- 

4:4
E|----------|--------------------------|-----------------------|-----------------
B|----------|--------------------------|-----------------------|-----------------
G|----------|--------------------------|-----------------------|-----------------
D|-----3----|--------------------------|-----------------------|-----------------
A|--5--1----|----9--10-----7--9-----5--|-7-----4--5-----5------|----9--10-----7--
E|--3-------|-0--7---8--0--5--7--0--3--|-5--0--2--3--0--3------|-0--7---8--0--5-- 

3:4
E|----------|-------------------|
B|----------|-------------------|
G|----------|-------------------|
D|----------|--------------3----|
A|-9-----5--|--7-----4--5--1----|
E|-7--0--3--|--5--0--2--3-------| 

7:4 a.h.
E|--||------------------------------|------------------------------||------------|-
B|--||*-----------------------------|-----------------------------*||------------|-
G|--||------------------------------|------------------------------||------------|-
D|--||------------------------------|------------------------------||-2--2---2-2-|-
E|--||--0-7-8-0-5-7-0-3-5-0-2-3-0-3-|-0-7-8-0-5-7-0-3-5-0-2-3------||-0--0---0-0-|- 

Let ring
E|------------||-----7------10-----|----7-------------||------0------|-------0-----
B|------------||*-------10---------|-------10--------*||---10----10--|----10----10-
G|------------||--9-------------12-|-9---------12-----||-9-----------|--7----------
D|-2--2-------||-------------------|--------------12--||-------------|-------------
A|-2--2-------||*------------------|-----------------*||-------------|-------------
E|-0--0-------||-------------------|------------------||-------------|-------------
E|--|-----0------|------8--10--|---------------------|----------------------------
B|--|--------10--|----8--------|---------------------|----------------------------
G|--|---9--------|-------------|---------------------|----------------------------
D|--|-7----------|-10----------|---2-0-2--0--2-5-2-0-|--------2-0-2--0--2---------
A|--|------------|-------------|---------------------|------------------------0-2-
E|--|------------|-------------|-0-------------------|------0-------------0-3----- 

4:4 9:8
E-|------------------------|-----------------------!-------------------|-----------
B-|------------------------|-----------------------!-------------------|-----------
G-|----------------0p2p0---|-----------------------!-------------------|-----------
D-|---2-0-2--0--2--------2-|---2-0-2--0--2---------!-------------------|---------0-
A-|------------------------|-------------------0-2-!-----2---4-2-2---5-|---4-0-4---
E-|-0----------------------|-0-------------0-3-----!-2-2---2-------2---|-2--------- 

4:4 9:8 4:4
E|---------|---------------------|---------------------|-----------------------|--
B|---------|---------------------|---------------------|-----------------------|--
G|-----2-0-|---------------------|--6--------------2-0-|---------4---6-4-4---7-|--
D|-2-4-----|---------------------|----4------0-2-4-----|---4-4-4---4-------4---|--
A|---------|-------2---4-2-2---5-|-------0-4-----------|-----------------------|--
E|---------|---2-2---2-------2---|---------------------|-----------------------|-- 

9:9 4:4 9:8 4:4
E|-------------------|---------------------|-----------------------|--------------
B|-------------------|---------------------|-----------------------|--------------
G|-6-------------2-0-|------7---9-7-7---10-|----9------------------|------7---9-7-
D|---4-----0-2-4-----|--7-7---7-------7----|--7---10--------7-10-8-|--7-7---7-----
A|-----0-4-----------|---------------------|---------7-8-10--------|--------------
E|-------------------|---------------------|-----------------------|-------------- 

9:8 4:4 9:8 4:4
E|--------|---------------------|-------------------|--------------------|----------
B|--------|---------------------|-------------------|--------------------|----------
G|-7---10-|----9----------------|-------------------|--------------------|----------
D|---7----|--7------------------|-----0---2-0-0---3-|----2---2-3-5-------|----------
A|--------|--------------0-3-1--|-0-0---0-------0---|--0---3-------0-3-1-|------2---
E|--------|------8-0-1-3--------|-------------------|--------------------|--2-2---2- 

9:8 4:4 9:8 4:4
E|-----------|--------------------|--------------------|--------------------|-----
B|-----------|--------------------|--------------------|--------------------|-----
G|-----------|----------------2-0-|--------------------|--6-------------2-0-|-----
D|-----------|----------0-2-4-----|--------------------|----4-----0-2-4-----|---4-
A|-4-2-2---5-|----4-0-4-----------|------2---4-2-2---5-|------0-4-----------|-----
E|-------2---|--2-----------------|--2-2---2-------2---|--------------------|----- 

9:8 4:4 9:8
E|-----------------|--------------------|---------------------|---------------------
B|-----------------|--------------------|---------------------|---------------------
G|---4---6-4-4---7-|--6-------------2-0-|------7---9-7-7---10-|----9----------------
D|-4---4-------4---|----4-----0-2-4-----|--7-7---7-------7----|--7---10--------7-10-
A|-----------------|------0-4-----------|---------------------|---------7-8-10------
E|-----------------|--------------------|---------------------|--------------------- 

4:4 9:8 4:4 9:8
E|---|---------------------|--------------------|--------------------|------------
B|---|---------------------|--------------------|--------------------|------------
G|---|------7---9-7-7---10-|----9---------------|--------------------|------------
D|-8-|--7-7---7-------7----|--7-----------------|------0---2-0-0---3-|----2---2-3-
A|---|---------------------|--------------0-3-1-|--0-0---0-------0---|--0---3-----
E|---|---------------------|------8-0-1-3-------|--------------------|------------ 

4:4 9:8 4:4 9:8 4:4
E|---------|----------|----------------|----------|----------------|----------|---
B|---------|----------|----------------|--------3-|----------------|----------|---
G|---------|----------|------------2-0-|--------2-|------------2-0-|----------|-2-
D|-5-------|----------|--2---0-2-4-----|--------0-|-2----0-2-4-----|----------|-2-
A|---0-3-1-|--4-----5-|--0-4-----------|--4-----0-|-2--4-----------|--4-----5-|-0-
E|---------|--2-----3-|----------------|--2-------|-0--------------|--2-----3-|--- 

 321321
                                                      2:4      9:8      
E|--------------|---------------|--------------13-16-|--15~---|---16-15-13----------
B|--------------|----0-3-2--6-9-|-8--12-15-14--------|--------|------------15-14-12-
G|----------2-1-|-0-------------|--------------------|--------|---------------------
D|----0-2-4-----|---------------|--------------------|--------|---------------------
A|--4-----------|---------------|--------------------|--------|---------------------
E|--------------|---------------|--------------------|--------|--------------------- 

4 3 1 4 3 1 4 2 1 3 2 4:4
E|------------------------------|------------------|------------|-----------------
B|------------------------------|------------------|------------|-----------------
G|-13-12-10---------------------|------------------|----------3-|-----------------
D|----------12----9-------------|--------------4-4-|-4--5--2--2-|-4--5------5-----
A|-------------11---11-9-8------|--9---9-9-9---2-2-|-2--2--0----|-2--2--4-4---3-3-
E|-------------------------10-9-|--7---7-7-7-------|------------|-----------------
E|---|------------|-------------------|-------------------0-5-0---0-6-0-|---------
B|---|------------|-------------------|-5-7-5-0-8-7-5-0-2---------------|-5-7-5-0-
G|---|----------3-|-------------------|-------------------------3-------|---------
D|-5-|-4--5--2--2-|-4--5------5-----5-|---------------------------------|---------
A|---|-2--2--0----|-2--2--4-4---3-3---|---------------------------------|---------
E|---|------------|-------------------|---------------------------------|---------
E|-----------3----3--|-------------------0-5-0---0-6-0-|--------------------------
B|-8-7-5-0-2----1----|-5-7-5-0-8-7-5-0-2---------------|-5-7-5-0-8-7-5-0----------
G|-------------------|-------------------------3-------|------------------------9-
D|-------------------|---------------------------------|-----------------7-9-10---
A|-------------------|---------------------------------|--------------------------
E|-------------------|---------------------------------|--------------------------
E|-------7-|-0------5-7~|---5h7p5----5-|------------------|-----------|-0-----------
B|-----7---|------------|---------8----|--8-7--5h7p5----5-|-----------|----------17-
G|-7-9-----|------------|--------------|--------------5---|--7-5-4----|------/14----
D|---------|------------|--------------|------------------|-----------|-------------
A|---------|------------|--------------|------------------|-----------|-------------
E|---------|------------|--------------|------------------|-----------|-------------
E|----17-17/19-|-----19-17-15-17--|--15----------------|---------------*|-
B|-------------|------------------|-----19-17---12-13--|-12------------*|-
G|-14----------|------------------|--------------------|----14---------*|-
D|-------------|------------------|--------------------|-------15~-----*|-
A|-------------|------------------|--------------------|---------------*|-
E|-------------|------------------|--------------------|---------------*|-



variations - click chord images
Transpose chords:
Tuning:
Cool service:
View: Size:
A  A  A
Rating:
Layout:
  • Currently 0/5 Stars.
  • 1
  • 2
  • 3
  • 4
  • 5
 
Accuracy:
  • Currently 2.5/5 Stars.
  • 1
  • 2
  • 3
  • 4
  • 5
 
click stars to rate
Chordie recommends:
Learn how to play guitar at JamPlay.com
Songbook:
Login to add this song to your songbook
Support the artist
Preview/buy this song
MSN Music
Why this non-profit ad?

 
login to add comments/video/corrections