Guitar Tabs, Chords and Lyrics


Space-Dye Vest    Dream Theater



Dream Theater
Space dye vest
Awake
Tabbed by Alex alexxman_007@hotmail.com


Keyboard intro :
e|----------------------------------------------|
B|----------------------------------------------|
G|-----9-------10--9-9---9-10-9----12--10-10----|
D|--12---12---------------------12--------------|
A|----------12----------------------------------|
D|----------------------------------------------|

e|----------------------------------------------|
B|--------------10-----------10-------11--10-10-|
G|--10-12-10-------12-12--12----12-9------------|
D|-----------12---------------------------------|
A|----------------------------------------------|
D|----------------------------------------------|

e|----------------------------------------------|
B|--10-11-10----13--11-11--11-10----10-11-10-10-|
G|-----------10------------------12-------------|
D|----------------------------------------------|
A|----------------------------------------------|
D|----------------------------------------------|

e|----------------------------------------------|
B|--10----------10------------------------------|
G|-----12-10-12----12-12--10-9----9-10-9--------|
D|-----------------------------12--------12-----|
A|--------------------------------------------12|
D|----------------------------------------------|

Acoustic guitar riff
e|-----------------------------------|
B|-----------------------------------|
G|--------0-------------2---0--------|
D|------0-----3---2-------------3----|
A|----0------------------------------|
D|--0---------------0----------------|

                                      last time 
e|-----------------------------------|-----|
B|-----------------------------------|-----|
G|--------0-------------0------------|-----|
D|--2---0-----3---2---0-----3---2----|--0--|
A|----1------------------------------|--0--|
D|-----------------------------------|--0--|

Play this all the verse and stop after “Always the worst way to start”
Piano plays alone in the documentary.

2nd verse
w/ distortion

   
e|----------------------------------------------|
B|----------------------------------------------|
G|----------------------------------------------|
D|--0-------------------------------------------|
A|--0-------------------------------------------|
D|--0-------------------------------------------|

    Now that you\'re gone I\'m trying to take it
    Found a new girl I think we can make it
  
e|----------------------------------------------|
B|----------------------------------------------|
G|----------------------------------------------|
D|----------------------------------------------|
A|--8-------------------------------------------|
D|--8-------------------------------------------|

    Learning to swallow the rage
    As long as she stays on the page

e|----------------------------------------------|
B|----------------------------------------------|
G|----------------------------------------------|
D|--0-------------------------------------------|
A|--0---------------------------------8----5----|
D|--0---------------------------------8----5----|
    This is not how I wanted it to end
    
e|----------------------------------------------|
B|----------------------------------------------|
G|----------------------------------------------|
D|--0-------------------------------------------|
A|--0------------------------8------------------|
D|--0------------------------8------------------|
    And I\'ll never be open again


I play this part over the next documentary or whatever it is
e|----------------------------------------------|
B|----------------------------------------------|
G|----------------------------------------------|
D|-----5-----5--3--5--3-------------------------|
A|--0--3--0--3--1--3--1--5--3--2-0--------------|
D|--0-----0--------------5--3--2-0--------------|


Then 3rd verse: 

e|----------------------------------------------|
B|----------------------------------------------|
G|----------------------------------------------|
D|-------------0--------------------------------|
A|-------------0--------------------------------|
D|-------------0--------------------------------|
      There\'s no one to take my blame

              
e|----------------------------------------------|
B|----------------------------------------------|
G|----------------------------------------------|
D|------------8---------------------------------|
A|------------8---------------------------------|
D|------------8---------------------------------|
   If they wanted to

e|----------------------------------------------|
B|----------------------------------------------|
G|----------------------------------------------|
D|----------0-----------------------------------|
A|----------0-----------------------------------|
D|----------0-----------------------------------|
   There\'s nothing to keep me sane
   And it\'s all the same to you
           
e|----------------------------------------------|
B|----------------------------------------------|
G|----------------------------------------------|
D|----------------------------------------------|
A|----------0-----------------------------------|
D|----------0-----------------------------------|
 1.There\'s nowhere to set my aim
 2.Never come near me again

                            
e|----------------------------------------------|
B|----------------------------------------------|
G|----------------------------------------------|
D|----------------------------------------------|
A|--------8-------------------5-----------------|
D|--------8-------------------5-----------------|
   So I\'m everywhere
   Do you really think I need you ?

  
    This part x2                         
e|----------------------------------------------|
B|----------------------------------------------|
G|-------7~----/12-10-9-7~~-12b(14)---10--9-----|
D|----------------------------------------------|
A|----------------------------------------------|
D|----------------------------------------------|
    I\'ll never be open again

e|-----------------------------------|
B|-----------------------------------|
G|-------9~/12-10-9~7/12--10--9------| 
D|-----------------------------------|
A|-----------------------------------|
D|-----------------------------------|
    I could never be open again



e|----------------------------------------------|
B|----------------------------------------------|
G|----------------------------------------------|
D|--7-------------------------------------------|
A|--0-------------------------------------8--5--|
D|----------------------------------------8--5--|
     And I\'ll smile and I\'ll learn to pretend
     


e|---------------------------------------------|----------|
B|---------------------------------------------|----------|
G|---------------------------------------------|----------|
D|-----7---------------------------------------|----------|
A|-----0-------------------------8-----5-------|--5---7---|
D|x-x--0-------------------------8-----5-------|--5---7---|
         And I\'ll never be open again
         And I\'ll have no more dreams to defend
         And I\'ll never be open again


Play again the keyboard intro.

~ Let ring
b Bend
x mute the string with your left hand

Any corrections or questions, e-mail me to alexxman_007@hotmail.com

Please rate!!!


Important: The song above is NOT stored on the Chordie server. The original song is hosted at www.xguitar.com. Chordie works as a search engine and provides on-the-fly formatting. Chordie does not index songs against artists'/composers' will. To remove this song please click here.

This song is displayed as text-only. Transposing and tuning is only available for chordpro-songs.

Login - add to songbook

Rating click stars to rate

Layout
Accuracy

SHARE PAGE  




You need to log in to post comments