Guitar Tabs, Chords and Lyrics


The Mirror   Dream Theater

             Gtr.1    [B5]                               Drums in
harm. > > > > > > >
v_ _ _ P.M._ _ _ _ _ _ _ _ _ _ _ _ _ _ _ _ _ _ _ _ _ _ _ _
E||---------|-----------------------------|-----------------------|
B||--4------|-----------------------------|-----------------------|
G||4--4-----|-----------------------------|3----------------------|
D||4---4----|-4-4-4--4-4-4--4-4-4--4-4-4--|4-4-4-4--4-4-4--4-4-4--|
A||-----x---|-2-2-2--2-2-2--2-2-2--2-2-2--|--2-2-2--2-2-2--2-2-2--|
E||------x--|-2-2-2--2-2-2--2-2-2--2-2-2--|--2-2-2--2-2-2--2-2-2--|
B||-------x-|-0-0-0--0-0-0--0-0-0--0-0-0--|--0-0-0--0-0-0--0-0-0--|

Gtr.1
Band enters
> > > > > >
_ _ _ _ _ _ _ _ _ _ _ _ _ _ _ _ _ _ _ _ _ _
E|------------------------|----------------------|
B|------------------------|----------------------|
G|12----------------------|----------------------|
D|-8-4-4-4--4-4-4--4-4-4--|-4-4-4--4-4-4--4-4-4--|
A|---2-2-2--2-2-2--2-2-2--|-2-2-2--2-2-2--2-2-2--|
E|---2-2-2--2-2-2--2-2-2--|-2-2-2--2-2-2--2-2-2--|
B|---0-0-0--0-0-0--0-0-0--|-0-0-0--0-0-0--0-0-0--|

Gtr.1
> > > > > >
_ _ _ _ _ _ _ _ _ _ _ _ _ _ _ _ _ _ _ _ _ _
E|----------------------|----------------------|
B|----------------------|----------------------|
G|----------------------|----------------------|
D|-4-4-4--4-4-4--4-4-4--|-4-4-4--4-4-4--4-4-4--|
A|-2-2-2--2-2-2--2-2-2--|-2-2-2--2-2-2--2-2-2--|
E|-2-2-2--2-2-2--2-2-2--|-2-2-2--2-2-2--2-2-2--|
B|-0-0-0--0-0-0--0-0-0--|-0-0-0--0-0-0--0-0-0--|

Gtr.1
> > > > > > > >
_ _ _ _ _ _ _ _ _ _ _ _ _ _ _ _ _ _ _ _ _ _ _ _ _ _ _ _ _
E|------------------------------|-----------------------------|
B|------------------------------|-----------------------------|
G|4-----------------------------|-----------------------------|
D|4-4-4-4--4-4-4--4-4-4--4-4-4--|-4-4-4--4-4-4--4-4-4--4-4-4--|
A|--2-2-2--2-2-2--2-2-2--2-2-2--|-2-2-2--2-2-2--2-2-2--2-2-2--|
E|--2-2-2--2-2-2--2-2-2--2-2-2--|-2-2-2--2-2-2--2-2-2--2-2-2--|
B|--0-0-0--0-0-0--0-0-0--0-0-0--|-0-0-0--0-0-0--0-0-0--0-0-0--|

Gtr.1
> > > > > > > >
_ _ _ _ _ _ _ _ _ _ _ _ _ _ _ _ _ _ _ _ _ _ _ _ _ _ _ _ _
E|-----------------------------|-----------------------------|
B|-----------------------------|-----------------------------|
G|-----------------------------|-----------------------------|
D|-4-4-4--4-4-4--4-4-4--4-4-4--|-4-4-4--4-4-4--4-4-4--4-4-4--|
A|-2-2-2--2-2-2--2-2-2--2-2-2--|-2-2-2--2-2-2--2-2-2--2-2-2--|
E|-2-2-2--2-2-2--2-2-2--2-2-2--|-2-2-2--2-2-2--2-2-2--2-2-2--|
B|-0-0-0--0-0-0--0-0-0--0-0-0--|-0-0-0--0-0-0--0-0-0--0-0-0--|

Gtr.1
> > > > > > > >
_ _ _ _ _ _ _ _ _ _ _ _ _ _ _ _ _ _ _ _ _ _ _ _ _ _ _ _ _
E|-----------------------------|-----------------------------|
B|-----------------------------|-----------------------------|
G|-----------------------------|-----------------------------|
D|-4-4-4--4-4-4--4-4-4--4-4-4--|-4-4-4--4-4-4--4-4-4--4-4-4--|
A|-2-2-2--2-2-2--2-2-2--2-2-2--|-2-2-2--2-2-2--2-2-2--2-2-2--|
E|-2-2-2--2-2-2--2-2-2--2-2-2--|-2-2-2--2-2-2--2-2-2--2-2-2--|
B|-0-0-0--0-0-0--0-0-0--0-0-0--|-0-0-0--0-0-0--0-0-0--0-0-0--|

Gtr.1
> > > > > > > >
_ _ _ _ _ _ _ _ _ _ _ _ _ _ _ _ _ _ _ _ _ _ _ _ _ _ _ _ _ _ _ _ _
E|-----------------------------|----------------|-------------------|
B|-----------------------------|----------------|-------------------|
G|-----------------------------|2---------------|-9-----------------|
D|-4-4-4--4-4-4--4-4-4--4-4-4--|4-4-4-4--4-4-4--|16-4-4-4--4-4-4--4-|
A|-2-2-2--2-2-2--2-2-2--2-2-2--|--2-2-2--2-2-2--|---2-2-2--2-2-2--2-|
E|-2-2-2--2-2-2--2-2-2--2-2-2--|--2-2-2--2-2-2--|---2-2-2--2-2-2--2-|
B|-0-0-0--0-0-0--0-0-0--0-0-0--|--0-0-0--0-0-0--|---0-0-0--0-0-0--0-|

Gtr.1
> > > >
_ _ _ _ _ _ _ _ _ _ _ _ _ _ _ _ _ _ _ _ _ _ _
E|------------------------|-----------------------|
B|------------------------|-----------------------|
G|4-----------------------|-----------------------|
D|4-4--4----4--4--4----4--|-4--4----4--4--4----4--|
A|--2--2----2--2--2----2--|-2--2----2--2--2----2--|
E|--2--2----2--2--2----2--|-2--2----2--2--2----2--|
B|--0--0----0--0--0----0--|-0--0----0--0--0----0--|

Gtr.1
> > > >
_ _ _ _ _ _ _ _ _ _ _ _ _ _ _ _ _ _ _ _ _ _ _
E|-----------------------|-----------------------|
B|-----------------------|-----------------------|
G|-----------------------|-----------------------|
D|-4--4----4--4--4----4--|-4--4----4--4--4----4--|
A|-2--2----2--2--2----2--|-2--2----2--2--2----2--|
E|-2--2----2--2--2----2--|-2--2----2--2--2----2--|
B|-0--0----0--0--0----0--|-0--0----0--0--0----0--|

Gtr.1
> > > >
_ _ _ _ _ _ _ _ _ _ _ _ _ _ _ _ _ _ _ _ _ _ _
E|-----------------------|-----------------------|
B|-----------------------|-----------------------|
G|-----------------------|-----------------------|
D|-4--4----4--4--4----4--|-4--4----4--4--4----4--|
A|-2--2----2--2--2----2--|-2--2----2--2--2----2--|
E|-2--2----2--2--2----2--|-2--2----2--2--2----2--|
B|-0--0----0--0--0----0--|-0--0----0--0--0----0--|

Gtr.1
> > > >
_ _ _ _ _ _ _ _ _ _ _ _ _ _ _ _ _ _ _ _ _ _ _
E|-----------------------|-----------------------|
B|-----------------------|-----------------------|
G|-----------------------|-----------------------|
D|-4--4----4--4--4----4--|-4--4----4--4--4----4--|
A|-2--2----2--2--2----2--|-2--2----2--2--2----2--|
E|-2--2----2--2--2----2--|-2--2----2--2--2----2--|
B|-0--0----0--0--0----0--|-0--0----0--0--0----0--|

Gtr.1
> > > >
_ _ _ _ _ _ _ _ _ _ _ _ _ _ _ _ _ _ _ _ _ _ _
E|-----------------------|-----------------------|
B|-----------------------|-----------------------|
G|-----------------------|-----------------------|
D|-4--4----4--4--4----4--|-4--4----4--4--4----4--|
A|-2--2----2--2--2----2--|-2--2----2--2--2----2--|
E|-2--2----2--2--2----2--|-2--2----2--2--2----2--|
B|-0--0----0--0--0----0--|-0--0----0--0--0----0--|

Gtr.1
> > > >
_ _ _ _ _ _ _ _ _ _ _ _ _ _ _ _ _ _ _ _ _ _ _
E|-----------------------|-----------------------|
B|-----------------------|-----------------------|
G|-----------------------|-----------------------|
D|-4--4----4--4--4----4--|-4--4----4--4--4----4--|
A|-2--2----2--2--2----2--|-2--2----2--2--2----2--|
E|-2--2----2--2--2----2--|-2--2----2--2--2----2--|
B|-0--0----0--0--0----0--|-0--0----0--0--0----0--|

Gtr.1
> > > >
_ _ _ _ _ _ _ _ _ _ _ _ _ _ _ _ _ _ _ _ _ _ _
E|-----------------------|-----------------------|
B|-----------------------|-----------------------|
G|-----------------------|-----------------------|
D|-4--4----4--4--4----4--|-4--4----4--4--4----4--|
A|-2--2----2--2--2----2--|-2--2----2--2--2----2--|
E|-2--2----2--2--2----2--|-2--2----2--2--2----2--|
B|-0--0----0--0--0----0--|-0--0----0--0--0----0--|

Gtr.1
> > > >
_ _ _ _ _ _ _ _ _ _ _ _ _ _ _ _ _ _ _ _ _ _ _
E|-----------------------|-----------------------|
B|-----------------------|-----------------------|
G|-----------------------|-----------------------|
D|-4--4----4--4--4----4--|-4--4----4--4--4----4--|
A|-2--2----2--2--2----2--|-2--2----2--2--2----2--|
E|-2--2----2--2--2----2--|-2--2----2--2--2----2--|
B|-0--0----0--0--0----0--|-0--0----0--0--0----0--|

Gtr.1
>
E|----------------------|-------------------|
B|----------------------|-------------------|
G|----------------------|-------------------|
D|-4--------------------|(4)----------------|
A|-2--------------------|(2)----------------|
E|-2--------------------|(2)----------------|
B|-0--------------------|(0)----------------|

| Gtr.2 w/wah,as filter w/bar
| > > > <<
| o o ~~~~~~~~
E|----------------------|-------------------|
B|----------------------|-------------------|
G|----------------------|-------------------|
D|-------------------4--|----3--------------|
A|----------2^^1^^2-----|-------------------|
E|----------------------|-------------------|
B|----------------------|-------------------|

Gtr.1
>
E|-----------------------|-------------------|
B|-----------------------|-------------------|
G|-----------------------|-------------------|
D|-4---------------------|(4)----------------|
A|-2---------------------|(2)----------------|
E|-2---------------------|(2)----------------|
B|-0---------------------|(0)----------------|

| Gtr.2 w/bar
| > > << <<<<
| + o \-1/ ~~~~~~~~~~~
E|-----------------------|-------------------|
B|-----------------------|-------------------|
G|-----------------------|-------------------|
D|(3)----(6)-------------|-------------------|
A|----------6\4^^2-4-/6--|(6)----------------|
E|-----------------------|-------------------|
B|-----------------------|-------------------|

Gtr.1
>
E|-----------------------|---------------------|
B|-----------------------|---------------------|
G|-----------------------|---------------------|
D|-4---------------------|(4)------------------|
A|-2---------------------|(2)------------------|
E|-2---------------------|(2)------------------|
B|-0---------------------|(0)------------------|

| Gtr.2
| << > > > <<
| ~~ + ~~ o o ~~~~~~
E|-----------------------|---------------------|
B|-----------------------|---------------------|
G|-----------------------|---------------------|
D|--------------------4--|----3---(3)^(4)------|
A|-------(6)\2^^1^^2-----|---------------------|
E|-----------------------|---------------------|
B|-----------------------|---------------------|

N.C.
Gtr.1
> > > > > > >
E|----------------------|-------------------------|
B|----------------------|-------------------------|
G|----------------------|-------------------------|
D|-4--------------------|(4)----------------------|
A|-2--------------------|(2)----------------------|
E|-2--------------------|(2)----5--4--3--2--1--0--|
B|-0--------------------|(0)----------------------|

| Gtr.2
| << > > > > > > >
| ~~~~ + o
E|----------------------|-------------------------|
B|----------------------|-------------------------|
G|----------------------|-------------------------|
D|(3)-------------------|-------------------------|
A|---------8\6—4--6-/8--|\6--4--0-----------------|
E|----------------------|----------4--3--2--1--0--|
B|----------------------|-------------------------|

           [B5]Gtr.1
>
E|-----------------------|-------------------|
B|-----------------------|-------------------|
G|-----------------------|-------------------|
D|-4---------------------|(4)----------------|
A|-2---------------------|(2)----------------|
E|-2---------------------|(2)----------------|
B|-0---------------------|(0)----------------|

| Gtr.2 w/bar
| > > > > <<
| o ~~~~~~~~
E|-----------------------|-------------------|
B|-----------------------|-------------------|
G|-------------------11--|---10--------------|
D|----------9^^8--9------|-------------------|
A|-----------------------|-------------------|
E|-----------------------|-------------------|
B|-0---------------------|-------------------|

Gtr.1
>
E|---------------------|--------------------|
B|---------------------|--------------------|
G|---------------------|--------------------|
D|-4-------------------|(4)-----------------|
A|-2-------------------|(2)-----------------|
E|-2-------------------|(2)-----------------|
B|-0-------------------|(0)-----------------|

| Gtr.2 w/bar
| +1 > > <<
| ~~ + ~~ o \-1/
E|---------------------|--------------------|
B|---------------------|--------------------|
G|----------8^^6-8/10--|\8--6---------------|
D|---------------------|-------7------------|
A|---------------------|--------------------|
E|---------------------|--------------------|
B|---------------------|--------------------|

Gtr.1
>
E|-----------------------|-------------------------|
B|-----------------------|-------------------------|
G|-----------------------|-------------------------|
D|-4---------------------|(4)----------------------|
A|-2---------------------|(2)----------------------|
E|-2---------------------|(2)----------------------|
B|-0---------------------|(0)----------------------|

| Gtr.2
| > > >
| + \-3 ~~~~~~~~
E|-----------------------|-------------------------|
B|-----------------------|-------------------------|
G|-------------------11--|----10---(10)^(11)-------|
D|----------9^^8--9------|-------------------------|
A|-----------------------|-------------------------|
E|-----------------------|-------------------------|
B|-----------------------|-------------------------|

N.C.
Gtr.1
> > > > > > >
E|---------------------|-------------------------|
B|---------------------|-------------------------|
G|---------------------|-------------------------|
D|-4-------------------|(4)----------------------|
A|-2-------------------|(2)----------------------|
E|-2-------------------|(2)----5--4--3--2--1--0--|
B|-0-------------------|(0)----------------------|

| Gtr.2
| > A.H. > > > > > >
| ~~~~~~~ 1
E|---------------------|-------------------------|
B|---------------------|-------------------------|
G|--------10\8^^6—8b---|-r^^6--------------------|
D|---------------------|------/7--6--5--4--3-----|
A|----------------—----|----------------------7--|
E|---------------------|-------------------------|
B|---------------------|-------------------------|

           [B5]Gtr.1
> > > >
P.M._ _ _ _ _ _ _ _ _ _ _ _ _ _ _ _ _ _
E|-------------------|---------------------|
B|-------------------|---------------------|
G|-------------------|7--------------------|
D|-------------------|8--------------------|
A|-------------------|---------------------|
E|-0--0--0--0--0--0--|--0--0----0--0--0----|

| Gtr.2
| <<<
| o ~~~ +
E|-------------------|---------------------|
B|-------------------|---------------------|
G|-------------------|7--------------------|
D|(7)---(7)----------|8--------------------|
A|-------------------|---------------------|
E|-------------------|---------------------|

Gtr.1
> > > > > >
_ _ _ _ _ _ _ _ _ _ _ _ _ _ _ _ _ _ _ _ _ _
E|------------------------|----------------------|
B|------------------------|----------------------|
G|12----------------------|----------------------|
D|-8-4-4-4--4-4-4--4-4-4--|-4-4-4--4-4-4--4-4-4--|
A|---2-2-2--2-2-2--2-2-2--|-2-2-2--2-2-2--2-2-2--|
E|---2-2-2--2-2-2--2-2-2--|-2-2-2--2-2-2--2-2-2--|
B|---0-0-0--0-0-0--0-0-0--|-0-0-0--0-0-0--0-0-0--|

Temp – ta - tion,why won't_ you leave me_ a –
         [D5]Gtr.1[E5] [B]
> > > > > >
_ _ _ _ _ _ _ _ _ _ _ _ _ _ _ _ _
E|----------------------|----------------------|
B|----------------------|----------------------|
G|----------------------|----------------------|
D|----------------------|----------------------|
A|-5-5-5--5-5-5--5-5-5--|-5-5-5--5-5-5/7---7---|
E|-5-5-5--5-5-5--5-5-5--|-5-5-5--5-5-5/7---7---|
B|-3-3-3--3-3-3--3-3-3--|-3-3-3--3-3-3/5---5^0-|

lone? Lurking Ev-‘ry Cor-ner,ev-‘ry-where I go._
         [B5]Gtr.1
> > > > > >
P.M._ _ _ _ _ _ _ _ _ _ _ _ _ _ _ _ _ _ _ _
E|----------------------|----------------------|
B|----------------------|----------------------|
G|----------------------|----------------------|
D|-4-4-4--4-4-4--4-4-4--|-4-4-4--4-4-4--4-4-4--|
A|-2-2-2--2-2-2--2-2-2--|-2-2-2--2-2-2--2-2-2--|
E|-2-2-2--2-2-2--2-2-2--|-2-2-2--2-2-2--2-2-2--|
B|-0-0-0--0-0-0--0-0-0--|-0-0-0--0-0-0--0-0-0--|

Self Con-trol,_ don't turn_ your back on_ me
         [F5]Gtr.1[C5]
> > > > > >
_ _ _ _ _ _ _ _ _ _ _ _ _ _ _ _ _ _ _ _ _ _
E|----------------------|----------------------|
B|----------------------|----------------------|
G|----------------------|----------------------|
D|----------------------|----------------------|
A|-3-3-3--3-3-3--3-3-3--|-3-3-3--3-3-3--3-3-3--|
E|-1-1-1--1-1-1--1-1-1--|-3-3-3--3-3-3--3-3-3--|
B|-1-1-1--1-1-1--1-1-1--|-1-1-1--1-1-1--1-1-1--|

now,when I need you the most.__
         [B5]Gtr.1
> > > > > >
_ _ _ _ _ _ _ _ _ _ _ _ _ _ _ _ _ _ _ _ _ _
E|----------------------|----------------------|
B|----------------------|----------------------|
G|----------------------|----------------------|
D|-4-4-4--4-4-4--4-4-4--|-4-4-4--4-4-4--4-4-4--|
A|-2-2-2--2-2-2--2-2-2--|-2-2-2--2-2-2--2-2-2--|
E|-2-2-2--2-2-2--2-2-2--|-2-2-2--2-2-2--2-2-2--|
B|-0-0-0--0-0-0--0-0-0--|-0-0-0--0-0-0--0-0-0--|

Con-stant pres - sure tests__ my
         [D5]Gtr.1[E5] [B]
> > > > > >
_ _ _ _ _ _ _ _ _ _ _ _ _ _ _ _ _
E|----------------------|----------------------|
B|----------------------|----------------------|
G|----------------------|----------------------|
D|----------------------|----------------------|
A|-5-5-5--5-5-5--5-5-5--|-5-5-5--5-5-5/7---7---|
E|-5-5-5--5-5-5--5-5-5--|-5-5-5--5-5-5/7---7---|
B|-3-3-3--3-3-3--3-3-3--|-3-3-3--3-3-3/5---5^0-|

will,__ my will or__ my won't._
         [B5]Gtr.1
> > > > > >
P.M._ _ _ _ _ _ _ _ _ _ _ _ _ _ _ _ _ _ _ _
E|----------------------|----------------------|
B|----------------------|----------------------|
G|----------------------|----------------------|
D|-4-4-4--4-4-4--4-4-4--|-4-4-4--4-4-4--4-4-4--|
A|-2-2-2--2-2-2--2-2-2--|-2-2-2--2-2-2--2-2-2--|
E|-2-2-2--2-2-2--2-2-2--|-2-2-2--2-2-2--2-2-2--|
B|-0-0-0--0-0-0--0-0-0--|-0-0-0--0-0-0--0-0-0--|

My Self Con – trol_ es-capes from_ me
         [F5]Gtr.1[C5]
> > > > > >
_ _ _ _ _ _ _ _ _ _ _ _ _ _ _ _ _ _ _ _ _ _ _ _
E|----------------------|--------------------------|
B|----------------------|--------------------------|
G|----------------------|13------------------------|
D|----------------------|-8------------------------|
A|-3-3-3--3-3-3--3-3-3--|---3-3-3--3-3-3--3-3-3--3-|
E|-1-1-1--1-1-1--1-1-1--|---3-3-3--3-3-3--3-3-3--3-|
B|-1-1-1--1-1-1--1-1-1--|---1-1-1--1-1-1--1-1-1--1-|

still._
          [B5]Gtr.1[F#5/C#] [D5]
> > > semi-A.H.
                                                                      [1/2]                           
E|-----------|-----------|----------|-----------|----------|-------------------|
B|-----------|-----------|----------|-----------|----------|-------------------|
G|4----------|-----------|----------|-----------|----------|-------------------|
D|4-4--------|(4)--------|----------|-----------|----------|-------------------|
A|--2--------|(2)--------|-4--------|(4)--------|-5--------|(5)----------------|
E|--2--------|(2)--------|-2--------|(2)--------|-5--------|(5)----------------|
B|--0--------|(0)------0-|-2--------|(2)------0-|-3--------|(3)-0-3^0-5b-r-3^0-|

B5 Bdim C#5 N.C.
Gtr.1
> > P.M. > >
E|---------------|---------------|----------|-----------|----------|-----------|
B|---------------|---------------|----------|-----------|----------|-----------|
G|---------------|---------------|-4--------|(4)--------|----------|-----------|
D|-4-4--4-4-4--4-|-4-4--4-4-4----|-3--------|(3)--------|----------|-----------|
A|-2-2--2-2-2--2-|-2-2--2-2-2----|----------|-----------|-4--------|(4)--------|
E|-2-2--2-2-2--2-|-2-2--2-2-2----|----------|-----------|-4--------|(4)--------|
B|-0-0--0-0-0--0-|-0-0--0-0-0--0-|----------|---------0-|-2--------|(2)------0-|

C5 B N.C.
Gtr.1
> > > > > > > > > >
E|-----------------|-----------------|----------------|----------------|--------|
B|-----------------|-----------------|----------------|----------------|--------|
G|-----------------|-----------------|----------------|----------------|2-------|
D|-----------------|-----------------|----------------|----------------|4-------|
A|-----------------|-----------------|-3-3--3-3-3--3--|-3-3--3-3-3--3--|--2-2---|
E|-------6-------7-|-------6-------7-|-1-1--1-1-1--1--|-1-1--1-1-1--1--|--2-2---|
B|-5^0-5---5^0-5---|-5^0-5---5^0-5---|-1-1--1-1-1--1--|-1-1--1-1-1--1--|--0-0---|

            [B5]Gtr.1
> > > > > > > >
P.M._ _ _ _ _ _ _ _ _ _ _ _ _ _ _ _ _ _ _ _ _ _ _ _ _ _ _
E|------------------------------|-----------------------------|
B|------------------------------|-----------------------------|
G|4-----------------------------|-----------------------------|
D|4-4-4-4--4-4-4--4-4-4--4-4-4--|-4-4-4--4-4-4--4-4-4--4-4-4--|
A|--2-2-2--2-2-2--2-2-2--2-2-2--|-2-2-2--2-2-2--2-2-2--2-2-2--|
E|--2-2-2--2-2-2--2-2-2--2-2-2--|-2-2-2--2-2-2--2-2-2--2-2-2--|
B|--0-0-0--0-0-0--0-0-0--0-0-0--|-0-0-0--0-0-0--0-0-0--0-0-0--|

Gtr.1
> > > > > >
_ _ _ _ _ _ _ _ _ _ _ _ _ _ _ _ _ _ _ _ _ _
E|------------------------|----------------------|
B|------------------------|----------------------|
G|12----------------------|----------------------|
D|-8-4-4-4--4-4-4--4-4-4--|-4-4-4--4-4-4--4-4-4--|
A|---2-2-2--2-2-2--2-2-2--|-2-2-2--2-2-2--2-2-2--|
E|---2-2-2--2-2-2--2-2-2--|-2-2-2--2-2-2--2-2-2--|
B|---0-0-0--0-0-0--0-0-0--|-0-0-0--0-0-0--0-0-0--|

Hyp-o-crite. How could you be so_ cruel_
         [D5]Gtr.1[E5] [B]
> > > > > >
_ _ _ _ _ _ _ _ _ _ _ _ _ _ _ _ _
E|----------------------|----------------------|
B|----------------------|----------------------|
G|----------------------|----------------------|
D|----------------------|----------------------|
A|-5-5-5--5-5-5--5-5-5--|-5-5-5--5-5-5/7---7---|
E|-5-5-5--5-5-5--5-5-5--|-5-5-5--5-5-5/7---7---|
B|-3-3-3--3-3-3--3-3-3--|-3-3-3--3-3-3/5---5^0-|

_____ and__ ex - pect my faith in__ re -
         [B5]Gtr.1
> > > > > >
P.M._ _ _ _ _ _ _ _ _ _ _ _ _ _ _ _ _ _ _ _
E|----------------------|----------------------|
B|----------------------|----------------------|
G|----------------------|----------------------|
D|-4-4-4--4-4-4--4-4-4--|-4-4-4--4-4-4--4-4-4--|
A|-2-2-2--2-2-2--2-2-2--|-2-2-2--2-2-2--2-2-2--|
E|-2-2-2--2-2-2--2-2-2--|-2-2-2--2-2-2--2-2-2--|
B|-0-0-0--0-0-0--0-0-0--|-0-0-0--0-0-0--0-0-0--|

turn?___
Re – sis - tance is__ not_ as hard as_ it
         [F5]Gtr.1[C5]
> > > > > >
_ _ _ _ _ _ _ _ _ _ _ _ _ _ _ _ _ _ _ _ _ _
E|----------------------|----------------------|
B|----------------------|----------------------|
G|----------------------|----------------------|
D|----------------------|----------------------|
A|-3-3-3--3-3-3--3-3-3--|-3-3-3--3-3-3--3-3-3--|
E|-1-1-1--1-1-1--1-1-1--|-3-3-3--3-3-3--3-3-3--|
B|-1-1-1--1-1-1--1-1-1--|-1-1-1--1-1-1--1-1-1--|

seems_ when you close the door.____
         [B5]Gtr.1
> > > > > >
_ _ _ _ _ _ _ _ _ _ _ _ _ _ _ _ _ _ _ _ _ _
E|----------------------|----------------------|
B|----------------------|----------------------|
G|----------------------|----------------------|
D|-4-4-4--4-4-4--4-4-4--|-4-4-4--4-4-4--4-4-4--|
A|-2-2-2--2-2-2--2-2-2--|-2-2-2--2-2-2--2-2-2--|
E|-2-2-2--2-2-2--2-2-2--|-2-2-2--2-2-2--2-2-2--|
B|-0-0-0--0-0-0--0-0-0--|-0-0-0--0-0-0--0-0-0--|

I spent_ so long___ trust-ing in
         [D5]Gtr.1[E5] [B]
> > > > > >
_ _ _ _ _ _ _ _ _ _ _ _ _ _ _ _ _
E|----------------------|----------------------|
B|----------------------|----------------------|
G|----------------------|----------------------|
D|----------------------|----------------------|
A|-5-5-5--5-5-5--5-5-5--|-5-5-5--5-5-5/7---7---|
E|-5-5-5--5-5-5--5-5-5--|-5-5-5--5-5-5/7---7---|
B|-3-3-3--3-3-3--3-3-3--|-3-3-3--3-3-3/5---5^0-|

you._____ I trust you__ for-got,__
         [B5]Gtr.1
> > > > > >
P.M._ _ _ _ _ _ _ _ _ _ _ _ _ _ _ _ _ _ _ _
E|----------------------|----------------------|
B|----------------------|----------------------|
G|----------------------|----------------------|
D|-4-4-4--4-4-4--4-4-4--|-4-4-4--4-4-4--4-4-4--|
A|-2-2-2--2-2-2--2-2-2--|-2-2-2--2-2-2--2-2-2--|
E|-2-2-2--2-2-2--2-2-2--|-2-2-2--2-2-2--2-2-2--|
B|-0-0-0--0-0-0--0-0-0--|-0-0-0--0-0-0--0-0-0--|

just when_ I thought I_be-lieved_in
         [F5]Gtr.1[C5]
> > > > > >
_ _ _ _ _ _ _ _ _ _ _ _ _ _ _ _ _ _ _ _ _ _
E|----------------------|----------------------|
B|----------------------|----------------------|
G|----------------------|----------------------|
D|----------------------|----------------------|
A|-3-3-3--3-3-3--3-3-3--|-3-3-3--3-3-3--3-3-3--|
E|-1-1-1--1-1-1--1-1-1--|-3-3-3--3-3-3--3-3-3--|
B|-1-1-1--1-1-1--1-1-1--|-1-1-1--1-1-1--1-1-1--|

you.__ (What're you doing?)(what're you doing?)
          [E5]Gtr.1[Em] [Esus9] [E5] [D5] [E5] [G5] [F#5]
> P.M.> > P.M. P.M. > P.M.> P.M. P.M.
E|-----------------------------|----------------------------|
B|-----------------------------|----------------------------|
G|4----------------------------|----------------------------|
D|4-2------5--4----------------|-2--------------------------|
A|--2------2--2----------------|-2------5-/7--------5\4-----|
E|--0--0-0-0--0----0-0-2^0-0-0-|-0--0-0-5-/7----0-0-3\2-0-0-|
B|-----------------------------|--------3-/5----------------|

It's time for me_ to deal, be-com-ing all_ too_ real,
E5 Bb5 A5 N.C. E5 D5 E5
Gtr.1
> P.M.> > P.M._ _ _ _ > > P.M._ _ _ _ _ _ _ _
E|----------------------------|---------------------------|
B|----------------------------|---------------------------|
G|----------------------------|---------------------------|
D|-2--------------------------|---------------------------|
A|-2------8--7----------------|---------------------------|
E|-0--0-0-6--5----0-0-5-3-----|-7\5-7-----7-7---7-7---7-7-|
B|--------6--5------------6-3-|-5\3-5--x--5-5---5-5---5-5-|

liv-ing in fear,Why_did_you lie and pre-tend?This has to
         [Bb5]Gtr.[A5]1[E5] [F5] [E5] [F5] [E5]
> > P.M._ _ _ _ _ _ > > P.M._ _ _ _ _ _ _ _
E|--------------------------|---------------------------|
B|--------------------------|---------------------------|
G|--------------------------|---------------------------|
D|-8\7----------------------|---------------------------|
A|-8\7-8--------------------|---------------------------|
E|-6\5-6----7-7---7-7---7-7-|-8\7-8--x--7-7---7-7---7-7-|
B|-6\5-6----5-5---5-5---5-5-|-6\5-6--x--5-5---5-5---5-5-|

come to an end.I'll nev-er trust you a-gain.It's time you
         G[D5]tr.[E5]1[D5] [E5] [F5] [E5] [D5] [E5] [D5]
> > > P.M.> > > > P.M.>
E|--------------------------|------------------------|
B|--------------------------|------------------------|
G|--------------------------|------------------------|
D|--------------------------|------------------------|
A|--------------------------|-------------------5----|
E|-7\5-7---0-7----0-0-8---0-|-7\5-7---0-7-------5----|
B|-5\3-5---0-5----0-0-6---0-|-5\3-5---0-5----0--3----|

made your a-mends._ Look in the mir-ror,_ my
             Gt[Bm(9]r.1[F#7] [Dm(9]
<< << << >> <<
E|---2------|(2)--0-----|(0)--0-----|(0)--7-----|
B|---3------|(3)--0-----|(0)--6-----|(6)--7-----|
G|---6------|(6)--3-----|(3)--7-----|(7)--7-----|
D|---4------|(4)--4-----|(4)--7-----|(7)--9-----|
A|---2------|(2)--4-----|(4)--5-----|(5)--------|
E|----------|-----------|-----------|-----------|
B|----------|-----------|-----------|-----------|

__ friend.
Male voice:I haven't behaved as I should.
Female voice:Everything you need is around you.The only danger is inside you.
         [Bdim]Gtr.1[C#m] [C2] [F/G]
E|(7)----------|-------------|-------------|-------------|
B|(7)----------|-------------|-------------|-------------|
G|(7)----------|-------------|-------------|-------------|
D|(9)----------|-------------|-------------|-------------|
A|-------------|-------------|-------------|-------------|
E|-------------|-------------|-------------|-------------|
B|-------------|-------------|-------------|-------------|

| Gtr.2/clean w/chorus)
| w/bar w/bar w/bar w/bar
| ~~~~ ~~~~ ~~~~ ~~~~
E|-------------|-4-----4-----|-3-----3-----|-5-----------|
B|-------6-----|-5--------5--|-3--------3--|-5-----5-----|
G|-4--------4--|-6-----------|-5-----------|-0--------5--|
D|-3-----------|-------------|-5-----------|-5-----------|
A|-------------|-------------|-3-----------|-5-----------|
E|-------------|-------------|-------------|-------------|
B|-------------|-------------|-------------|-------------|

I thought you could control life,but it's not like that. There are things you can't control.
         [Bm(11-9]Gtr.1(clean w/chorus)
E|---------------------------------|---------------------------------|
B|---------------------------------|---------------------------------|
G|-----6---------------6-----------|-----6---------------6-----------|
D|---4---------------4-------------|---4---------------4-------------|
A|-2---------------2---------------|-2---------------2---------------|
E|---------------------------------|---------------------------------|
B|---------------------------------|---------------------------------|

| Gtr.2
E|---------0---------------0-------|---------0---------------0-------|
B|-------3---3-----------3---3-----|-------3---3-----------3---3-----|
G|-------------6---------------6---|-------------6---------------6---|
D|---------------4---------------4-|(4)------------4---------------4-|
A|---------------------------------|---------------------------------|
E|---------------------------------|---------------------------------|
B|---------------------------------|---------------------------------|

Let's stare_ the prob - lem_ right in_ the
         [Dm(11-9]Gtr.1[E]
E|---------------------------------------|------------------------------------|
B|---------------------------------------|------------------------------------|
G|-----7------------------7--------------|-----7------------------9---------\-|
D|---7------------------7----------------|---7------------------9-------------|
A|-5------------------5------------------|-5------------------7---------------|
E|---------------------------------------|------------------------------------|
B|---------------------------------------|------------------------------------|

| Gtr.2
E|---------0------------------0----------|---------0------------------0-------|
B|-------8------------------8------------|-------8----------------------0-----|
G|-----------10-----------------10-------|-----------10-------------------9---|
D|--------------12-----------------12----|--------------12----------9-------9-|
A|-----------------12-----------------12-|-----------------12-----------------|
E|---------------------------------------|------------------------------------|
B|---------------------------------------|------------------------------------|

eye.________________ It's plagued me_ from coast to_ coast._
         [Bm(9]Gtr.1
E|---------------------------------|---------------------------------|
B|---------------------------------|---------------------------------|
G|-----6---------------6-----------|-----6---------------6-----------|
D|---4---------------4-------------|---4---------------4-------------|
A|-2---------------2---------------|-2---------------2---------------|
E|---------------------------------|---------------------------------|
B|---------------------------------|---------------------------------|

| Gtr.2
E|---------0---------------0-------|---------0---------------0-------|
B|-------3---3-----------3---3-----|-------3---3-----------3---3-----|
G|-------------6---------------6---|-------------6---------------6---|
D|---------------4---------------4-|(4)------------4---------------4-|
A|---------------------------------|---------------------------------|
E|---------------------------------|---------------------------------|
B|---------------------------------|---------------------------------|

__ Rac - ing the_ clock to pl-ease ev-‘ry-one,_
         [F(9]Gtr.1[C(9] [D(11] [C]
E|-----------------------------------|-------0------------3--------|
B|-----------------------------------|-3---3------------7---5------|
G|-0---0-----------0---0-------------|---0--------------7---5------|
D|-------7---------------7-----------|-----------------------------|
A|-----------------------------------|-3---------------------------|
E|---5---------------5---------------|-----------------------------|
B|-6---------------6-----------------|-----------------------------|

| Gtr.2
E|---------1-----------------1-------|---------0-------------8-----|
B|-------1---1-------------1---1-----|-------3---3-----------8-----|
G|-------------0---0-------------0---|-------------0---------9-----|
D|---------------3-----------------3-|---------------5-------------|
A|-----------------------------------|-----------------------------|
E|-----------------------------------|-----------------------------|
B|-----------------------------------|-----------------------------|

_________ all_ but_ the one_ who mat-ters_ the_ most.
         [Em(9)/B]Gtr.1
E|-----------------------------------|-----------------------------------|
B|-8----------------8----------------|-8----------------8----------------|
G|---11---------------11-------------|---11---------------11-------------|
D|------9----------------9-----------|------9----------------9-----------|
A|-----------------------------------|-----------------------------------|
E|-----------------------------------|-----------------------------------|
B|-----------------------------------|-----------------------------------|

| Gtr.2
E|----------------0----------------0-|(0)-------------0----------------0-|
B|--------------0----------------0---|--------------0----------------0---|
G|----------4----------------4-------|----------4----------------4-------|
D|--------4---4------------4---4-----|--------4---4------------4---4-----|
A|-----------------------------------|-----------------------------------|
E|-----------------------------------|-----------------------------------|
B|-----------------------------------|-----------------------------------|

__ Re-flec-tions of_ re-al-i-ty_________________
         [Dsus]Gtr.1[Esus]
E|--------------------------------------------|---------------------------------0----------0-|
B|10--------------------10--------------------|10--------------------------------------------|
G|---12--------------------12-----------------|---12-------------------------14--------------|
D|------12--------------------12--------------|------12-------------------14--------12^14----|
A|--------------------------------------------|----------------------------------------------|
E|--------------------------------------------|----------------------------------------------|
B|--------------------------------------------|----------------------------------------------|

| Gtr.2
E|-------------------10--------------------10-|10-------------------10----------0------------|
B|----------------10--------------------10----|10----------------10---------------0----------|
G|-------------12--------------------12-------|---------12----12--------------------14----14-|
D|---------12--------------------12-----------|------------12----------14--------------12----|
A|--------------------------------------------|----------------------------------------------|
E|--------------------------------------------|----------------------------------------------|
B|--------------------------------------------|----------------------------------------------|

are slow-ly com-ing in – to__ view.__________________________
         [G/B]Gtr.3[Bm](acoustic[G/B] 6 st[Bm]ring)[G/B] [Bm] [G/B] [Bm]
> > > > > > > >
E|------2--2-2-2------2--2-2-2-|------2--2-2-2------2--2-2-2-|
B|-3--3-3--3-3-3-3--3-3--3-3-3-|-3--3-3--3-3-3-3--3-3--3-3-3-|
G|-4--4-4--4-4-4-4--4-4--4-4-4-|-4--4-4--4-4-4-4--4-4--4-4-4-|
D|-5--5-4--4-4-4-5--5-4--4-4-4-|-5--5-4--4-4-4-5--5-4--4-4-4-|
A|-2--2-2--2-2-2-2--2-2--2-2-2-|-2--2-2--2-2-2-2--2-2--2-2-2-|
E|-----------------------------|-----------------------------|

| Gtr.4(acoustic 12 string)
| > > > > > > > >
E|------2--2-2-2------2--2-2-2-|------2--2-2-2------2--2-2-2-|
B|-3--3-3--3-3-3-3--3-3--3-3-3-|-3--3-3--3-3-3-3--3-3--3-3-3-|
G|-4--4-4--4-4-4-4--4-4--4-4-4-|-4--4-4--4-4-4-4--4-4--4-4-4-|
D|-5--5-4--4-4-4-5--5-4--4-4-4-|-5--5-4--4-4-4-5--5-4--4-4-4-|
A|-2--2-2--2-2-2-2--2-2--2-2-2-|-2--2-2--2-2-2-2--2-2--2-2-2-|
E|-----------------------------|-----------------------------|

How in the hell__could you pos-sib-ly__ for-give__ me?___
         [F(2]Gtr.1[F] [F(2] [F] [C(9)/G] [C/G] [C(9)/G] [C/G]
E|-----------------------------|-----------------------------|
B|-----------------------------|-----------------------------|
G|-----------------------------|-----------------------------|
D|-----------------------------|-----------------------------|
A|-----------------------------|-----------------------------|
E|-----------------------------|-------------------------3---|
B|-----------------------------|-------------------------1---|

| Gtr.3
| > > > > > > > >
E|-1--1-1--1-1-1-1--1-1--1-1-1-|-----------------------------|
B|-1--1-1--1-1-1-1--1-1--1-1-1-|-1--1-1--1-1-1-1--1-1--1-1-1-|
G|-0--0-2--2-2-2-0--0-2--2-2-2-|-0--0-0--0-0-0-0--0-0--0-0-0-|
D|-3--3-3--3-3-3-3--3-3--3-3-3-|-0--0-2--2-2-2-0--0-2--2-2-2-|
A|-3--3-3--3-3-3-3--3-3--3-3-3-|-3--3-3--3-3-3-3--3-3--3-3-3-|
E|-----------------------------|-3--3-3--3-3-3-3--3-3--3-3-3-|

| Gtr.4
| > > > > > > > >
E|-1--1-1--1-1-1-1--1-1--1-1-1-|-----------------------------|
B|-1--1-1--1-1-1-1--1-1--1-1-1-|-1--1-1--1-1-1-1--1-1--1-1-1-|
G|-0--0-2--2-2-2-0--0-2--2-2-2-|-0--0-0--0-0-0-0--0-0--0-0-0-|
D|-3--3-3--3-3-3-3--3-3--3-3-3-|-0--0-2--2-2-2-0--0-2--2-2-2-|
A|-3--3-3--3-3-3-3--3-3--3-3-3-|-3--3-3--3-3-3-3--3-3--3-3-3-|
E|-----------------------------|-3--3-3--3-3-3-3--3-3--3-3-3-|

af-ter all_ the hell_ I put_ you___ through_
         [B5]Gtr.1[F#5/C#] [D5]
> > > semi-A.H.
                                                                     [1/2]                           
E|----------|-----------|----------|-----------|----------|-------------------|
B|----------|-----------|----------|-----------|----------|-------------------|
G|----------|-----------|----------|-----------|----------|-------------------|
D|-4--------|(4)--------|----------|-----------|----------|-------------------|
A|-2--------|(2)--------|-4--------|(4)--------|-5--------|(5)----------------|
E|-2--------|(2)--------|-2--------|(2)--------|-5--------|(5)----------------|
B|-0--------|(0)------0-|-2--------|(2)------0-|-3--------|(3)-0-3^0-5b-r-3^0-|

| Gtr.3
E|----------|-----------|----------|-----------|----------|-------------------|
B|-4--------|-----------|----------|-----------|----------|-------------------|
G|-4--------|-----------|----------|-----------|----------|-------------------|
D|-4--------|-----------|----------|-----------|----------|-------------------|
A|-2--------|-----------|----------|-----------|----------|-------------------|
E|-2--------|-----------|----------|-----------|----------|-------------------|

| Gtr.4
E|----------|-----------|----------|-----------|----------|-------------------|
B|-4--------|-----------|----------|-----------|----------|-------------------|
G|-4--------|-----------|----------|-----------|----------|-------------------|
D|-4--------|-----------|----------|-----------|----------|-------------------|
A|-2--------|-----------|----------|-----------|----------|-------------------|
E|-2--------|-----------|----------|-----------|----------|-------------------|

_______
B5 Bdim C#5 N.C.
Gtr.1
> > P.M. > >
E|---------------|---------------|----------|-----------|----------|-----------|
B|---------------|---------------|----------|-----------|----------|-----------|
G|---------------|---------------|-4--------|(4)--------|----------|-----------|
D|-4-4--4-4-4--4-|-4-4--4-4-4----|-3--------|(3)--------|----------|-----------|
A|-2-2--2-2-2--2-|-2-2--2-2-2----|----------|-----------|-4--------|(4)--------|
E|-2-2--2-2-2--2-|-2-2--2-2-2----|----------|-----------|-4--------|(4)--------|
B|-0-0--0-0-0--0-|-0-0--0-0-0--0-|----------|---------0-|-2--------|(2)------0-|

           Gtr.1[C5]
> > > > > > > > P.M.
E|-----------------|-----------------|----------------|----------------|
B|-----------------|-----------------|----------------|----------------|
G|-----------------|-----------------|----------------|----------------|
D|-----------------|-----------------|----------------|----------------|
A|-----------------|-----------------|-3-3--3-3-3--3--|-3-3--3-3-3-----|
E|-------6-------7-|-------6-------7-|-1-1--1-1-1--1--|-1-1--1-1-1-----|
B|-5^0-5---5^0-5---|-5^0-5---5^0-5---|-1-1--1-1-1--1--|-1-1--1-1-1--0--|

           [E5]Gtr.1[Em] [Esus9] [E5] [D5] [E5] [G5] [F#5]
> P.M.> > P.M. P.M. > P.M.> P.M. P.M.
E|----------------------------|----------------------------|
B|----------------------------|----------------------------|
G|----------------------------|----------------------------|
D|-2------5--4----------------|-2--------------------------|
A|-2------2--2----------------|-2------5-/7--------5\4-----|
E|-0--0-0-0--0----0-0-2^0-0-0-|-0--0-0-5-/7----0-0-3\2-0-0-|
B|----------------------------|--------3-/5----------------|

It's time for me_ to deal, be-com-ing all_ too_ real,
E5 Bb5 A5 N.C. E5 D5 E5
Gtr.1
> P.M.> > P.M._ _ _ _ > > P.M._ _ _ _ _ _ _ _
E|----------------------------|---------------------------|
B|----------------------------|---------------------------|
G|----------------------------|---------------------------|
D|-2--------------------------|---------------------------|
A|-2------8--7----------------|---------------------------|
E|-0--0-0-6--5----0-0-5-3-----|-7\5-7-----7-7---7-7---7-7-|
B|--------6--5------------6-3-|-5\3-5--x--5-5---5-5---5-5-|

liv-ing in fear,Why’d I__ be-tray__ my friend? Ly-ing
         [Bb5]Gtr.[A5]1[E5] [F5] [E5] [F5] [E5]
> > P.M._ _ _ _ _ _ > > P.M._ _ _ _ _ _ _ _
E|--------------------------|---------------------------|
B|--------------------------|---------------------------|
G|--------------------------|---------------------------|
D|-8\7----------------------|---------------------------|
A|-8\7-8--------------------|---------------------------|
E|-6\5-6----7-7---7-7---7-7-|-8\7-8--x--7-7---7-7---7-7-|
B|-6\5-6----5-5---5-5---5-5-|-6\5-6--x--5-5---5-5---5-5-|

un-til the end.Liv-ing life so pre-tend.It's time to
         G[D5]tr.[E5]1[D5] [E5] [F5] [E5] [D5] [E5] [D5]
> > > P.M.> > > P.M.> P.M.>
E|--------------------------|-------------------------|
B|--------------------------|-------------------------|
G|--------------------------|-------------------------|
D|--------------------------|-------------------------|
A|--------------------------|--------------------5----|
E|-7\5-7---0-7----0-0-8---0-|-7\5-7-----7--------5----|
B|-5\3-5---0-5----0-0-6---0-|-5\3-5---0-5----0-0-3----|

make my a-mends._ I'll nev-er hurt_ you_ a -
          [B5]Gtr.1[G5] [B5]
> > >
E|----------|----------|-3--------|(3)-------|----------|----------|
B|----------|----------|-3--------|(3)-------|----------|----------|
G|----------|----------|-0--------|(0)-------|----------|----------|
D|-4--------|(4)-------|-0--------|(0)-------|-4--------|(4)-------|
A|-2--------|(2)-------|-x--------|(x)-------|-2--------|(2)-------|
E|-2--------|(2)-------|-3--------|(3)-------|-2--------|(2)-------|
B|-0--------|(0)-------|----------|----------|-0--------|(0)-------| 

gain.______________________________
         [G5]Gtr.1[B5]
w/bar >>>
> -4 >
E|-3--------|----------|------|------|------|------|------|------|
B|-3--------|----------|------|------|------|------|------|------|
G|-0--------|-0----\---|------|------|------|------|------|------|
D|-0--------|----------|-4----|(4)---|(4)---|(4)---|(4)---|(4)---|
A|----------|----------|-2----|(2)---|(2)---|(2)---|(2)---|(2)---|
E|-3--------|----------|-2----|(2)---|(2)---|(2)---|(2)---|(2)---|
B|----------|----------|-0----|(0)---|(0)---|(0)---|(0)---|(0)---|

N.C.
Gtr. tacet
E|---------|---------|---------|---------|---------|---------|---------|---------|
B|---------|---------|---------|---------|---------|---------|---------|---------|
G|---------|---------|---------|---------|---------|---------|---------|---------|
D|---------|---------|---------|---------|---------|---------|---------|---------|
A|---------|---------|---------|---------|---------|---------|---------|---------|
E|---------|---------|---------|---------|---------|---------|---------|---------|
B|---------|---------|---------|---------|---------|---------|---------|---------|

           Gtr.1[B5]
P.M._ _ _ _
E|----------|----------|--------------------|------------------|
B|----------|----------|--------------------|------------------|
G|----------|----------|--------------------|------------------|
D|-------4--|(4)-------|(4)-----------------|(4)---------------|
A|-------2--|(2)-------|(2)-----------------|(2)---------------|
E|-------2--|(2)-------|(2)-----------------|(2)---------------|
B|-------0--|(0)-------|(0)-----------------|(0)---------------|

| Gtr.2 fdbk. –3
| ~~~~~~~~~~~~~~~~~~~~ harm._
E|----------|----------|----------12--------|---------\--------|
B|----------|----------|--------------------|------------------|
G|----------|----------|--------------------|------------------|
D|----------|----------|--------------------|----------------5-|
A|----------|----------|--------------------|--------------4---|
E|----------|----------|--------------------|------------------|
B|----------|----------|--------------------|------------------| 

Gtr.2
w/bar harm.
_ _ _ _ _ _ _ _ _ _ _ -3 -7/2 harm. + -7/2
E|----------------------|------------------|---------------------|------------------|
B|----------------------|------------------|---------------------|------------------|
G|----------------------|------------------|------12--------7----|(7)------------\--|
D|(5)------5-----5------|----(5)---\----\--|(5)------------------|------------------|
A|------4-----4---------|------------------|---------------------|------------------|
E|----------------------|------------------|---------------------|------------------|
B|----------------------|------------------|---------------------|------------------|

Gtr.2 +2
-1/2 harm. harm. harm. -6
E|--------------------|------------------|
B|--------------------|------------------|
G|(7)---2--/---/------|-----2----\----\--|
D|--------------------|------------------|
A|--------------------|------------------|
E|--------------------|------------------|
B|---------------0--\-|----\-----\----\--|

           [B5]Gtr.1[G5] [F#5] [E5] [F#5] [G5]
> > P.M.> P.M.> P.M._ _ _ _ >
E|------------------------|------------------------|
B|------------------------|------------------------|
G|------------------------|------------------------|
D|------------------------|------------------------|
A|------5-----5--4-----4--|(4)----4-----4-----5----|
E|-2----3--0--3--2--0--2--|(2)----2--0--2--0--3----|
B|-0----3--0--3--2--0--2--|(2)-0--2--0--2--0--3----|

           [B5]Gtr.1[G5] [F#5] [G5] [F#5] [F5]
> > P.M.> P.M.> P.M.> P.M.> >
E|------------------------|------------------------|
B|------------------------|------------------------|
G|------------------------|------------------------|
D|------------------------|------------------------|
A|------5-----5--4-----4--|(4)----5-----5--4--3----|
E|-2----3-----3--2-----2--|(2)----3-----3--2--1----|
B|-0-------0--------0-----|----0-----0-------------|

           [B5]Gtr.1[F#5] [E5] [F#5] [G5]
> P.M._ _ _ _ _ > P.M._ _ _ _ >
E|------------------------|------------------------|
B|------------------------|------------------------|
G|------------------------|------------------------|
D|------------------------|------------------------|
A|------5-----5--4-----4--|(4)----4-----4-----5----|
E|-2----3--0--3--2--0--2--|(2)----2--0--2--0--3----|
B|-0----3--0--3--2--0--2--|(2)-0--2--0--2--0--3----|

           [B5]Gtr.1[G5] [F#5] [G5] [F#5] [F5]
> P.M._ _ _ _ _ > P.M.> P.M.> >
E|------------------------|------------------------|
B|------------------------|------------------------|
G|------------------------|------------------------|
D|------------------------|------------------------|
A|-2----5-----5--4-----4--|(4)----5-----5--4--3----|
E|-2----3--0--3--2--0--2--|(2)-0--3-----3--2--1----|
B|-0----3--0--3--2--0--2--|(2)-0--3--0--3--2--1----|

N.C.(B)
Gtr.1
              h[1]arm.            gradual bend
~~~~~ 1/2
E|----------------------|-------------------|
B|----------------------|-------------------|
G|----------------------|------0b-----------|
D|----------------------|------3b-----------|
A|----------------------|-------------------|
E|----------------------|-------------------|
B|-0----2^^0--3b-----0--|(0)----------------|

Gtr.1
              h[1]arm.            gradual bend
~~~~~ 1/2
E|----------------------|-------------------|
B|----------------------|-------------------|
G|----------------------|------0b-----------|
D|----------------------|------3b-----------|
A|----------------------|-------------------|
E|----------------------|-------------------|
B|-0----2^^0--3b-----0--|(0)----------------|

Gtr.1
              h[1]arm.            gradual bend
~~~~~ 1/2
E|----------------------|-------------------|
B|----------------------|-------------------|
G|----------------------|------0b-----------|
D|----------------------|------3b-----------|
A|----------------------|-------------------|
E|----------------------|-------------------|
B|-0----2^^0--3b-----0--|(0)----------------|

Gtr.1
              h[1]arm.            gradual bend
~~~~~ 1/2
E|----------------------|-------------------||
B|----------------------|-------------------||
G|----------------------|------0b-----------||
D|----------------------|------3b-----------||
A|----------------------|-------------------||
E|----------------------|-------------------||
B|-0----2^^0--3b-----0--|(0)----------------||


Important: The song above is NOT stored on the Chordie server. The original song is hosted at www.xguitar.com. Chordie works as a search engine and provides on-the-fly formatting. Chordie does not index songs against artists'/composers' will. To remove this song please click here.

Text color:
Chord color:
Chord grids: 
Font size:    
Page size: 

A5 B B5 Bb5 Bdim Bm C C#m C(9)/G C/G C2 C5 D5 Dsus E E5 Em Esus Esus9 F F#5 F#7 F/G F5 G/B G5
variations - click chord images

Login - add to songbook

Transpose chords

Tuning

Rating click stars to rate

Layout
Accuracy

SHARE PAGE  




You need to log in to post comments