Guitar Tabs, Chords and Lyrics


Anna Lee    Dream Theater



Song: Anna Lee
Artist: Dream Theater
Album: Falling into infinity

Tabbed by Serena Di Iulio  ICQ: 38559568
 ~

   1:44
G||---------------------|----------------------|
D||---------------------|----------------------|
A||---------------------|----------------------|
E||--5------5--5--------|--5------5--5---------|
B||---------------------|-----------------5----|

----------------------|----------------------|
---------7\--------5\-|----------------------|
----------------------|----------------------|
--5---------3---------|--1------1--1----3----|
----------------------|----------------------|

---------------------|------------------------|
---------------------|------------------5--3--|
---------------------|---------------5--------|
--5------5--5--------|--5------5--5-----------|
---------------------|------------------------|

---------------------|---------------------|
---------7\----------|---------------------|
---------------------|---------------------|
--5---------3--------|--1------1--1--------|
---------------------|---------------------|
        Trying to   believe...
---------------------|---------------------|
---------------------|---------------------|
--4------------------|-----------5----4----|
-----------5----4----|--2------------------|
---------------------|---------------------|

----------------------|---------------------|
----------------------|---------------------|
--2------2------------|---------------------|
------------5------5--|--4------4--0--------|
----------------------|---------------------|

------------------------|-------------------|
------------------------|-------------------|
---------------3--4--5--|----------5--------|
--3------3--3-----------|-------------------|
------------------------|-------------------|

------------------------|---------------------------------|
------------------------|-----------12/14\12----12--------|
---------------3--4--5--|------5/------------12----12-----|
--3------3--3-----------|-----------------------------10\-|
------------------------|---------------------------------|

-------------------|---------------------11------11-|
-------------------|----------------9-12----9-12----|
-------------------|-------5/---10------------------|
--2----------------|--3-----------------------------|
-------------------|--------------------------------|

--9-------------------|--------------------|
----------------------|--------------------|
-------------5--------|--3--------6--------|
-----0--0-------------|--------------------|
----------------------|--------------------|

------------------|------------------|
------------------|------------------|
------------------|------------------|
------------------|------------------|
------------------|------------------|
             and now she's calling...
--------------------------|----------------------|
--------------------------|------3---------3-----|
--------------------------|----------------------|
--3--3--3--3--3--3--3--1--|---------1---------1--|
--------------------------|----------------------|

------------------------|----------------------|
------3----1-3--1-3-----|------3---------3-----|
------------------------|----------------------|
---------------------1--|---------1---------1--|
------------------------|----------------------|

-------------------|--------------------|
-------------------|--------------------|
----------------3--|--3------5----------|
-------------------|--------------------|
-------------------|--------------------|

--------------------|---------------------|
--1------3----------|------------------3--|
--------------------|--4------6-----------|
--------------------|---------------------|
--------------------|---------------------|
                   Guitar solo
------------------|---------------------|
------------------|---------------------|
------------------|---------------------|
------------------|---------------------|
------------------|--8------8--8--------|

-----------------------|-----------------------|
-----------------------|-----------------------|
-----------------------|---------10\--------8\-|
-----------------10----|-----------------------|
--8------8--8----------|--8----------6---------|

----------------------|---------------------|
----------------------|---------------------|
----------------------|---------------------|
----------------------|---------------------|
--4------4--4----6----|--8------8--8--------|

------------------------|-----------------------|
------------------------|-----------------------|
------------------8--6--|---------10\-----------|
---------------8--------|-----------------------|
--8------8--8-----------|--8----------6------6--|

---------------------|------------------------|
---------------------|------------------------|
---------------------|--2------2--2-----2--5--|
---------------------|---------------3--------|
--4------4--4--------|------------------------|

---------------------4---|----------------------|
---------------2-5-5-----|----------------------|
--3-------3--------------|----------------------|
------3------------------|--5------5--3------3--|
-------------------------|----------------------|

----------------------|---------------------|
----------------------|---------------------|
----------------------|---------------------|
--2-------------2--5--|--3---3---3----------|
-----------3----------|---------------------|

---------------------|---------------------|
---------------------|---------------------|
---------------------|--3---3---3----------|
--5---5---5----------|---------------------|
---------------------|---------------------|
                         trying to believe...
--------------------|---------------------|
--------------------|---------------------|
--------------------|-----------3----2----|
--3------------2----|--0------------------|
--------------------|---------------------|

---------------------|--------------------|
-----------3----2----|--------------------|
--0------------------|--5--------3--------|
---------------------|--------------------|
---------------------|--------------------|

--------------------|-----------------------|
--------------------|--------------0--2--3--|
--2-----------------|--1--------1-----------|
-----------3--------|-----------------------|
--------------------|-----------------------|

--------------3-2----|-----------------------|
------------------3--|--------------0--1--2--|
---------------------|--1--------1-----------|
---------------------|-----------------------|
---------------------|-----------------------|

-----------10/12\10----10-------|--------------------|
--3-----------------10----10----|--------------------|
-----------------------------8--|--------------------|
--------------------------------|--5--------5--------|
--------------------------------|--------------------|

----------------------14-------14-|
----------------12-15----12-15----|
-------8/---13--------------------|
--6-------------------------------|
----------------------------------|

--12---------------------|--------------------||
-------------------------|--------------------||
------10--10----8--------|--6--------9--------||
-------------------------|--------------------||


Important: The song above is NOT stored on the Chordie server. The original song is hosted at www.xguitar.com. Chordie works as a search engine and provides on-the-fly formatting. Chordie does not index songs against artists'/composers' will. To remove this song please click here.

This song is displayed as text-only. Transposing and tuning is only available for chordpro-songs.

Login - add to songbook

Rating click stars to rate

Layout
Accuracy

SHARE PAGE  




You need to log in to post comments