Guitar Tabs, Chords and Lyrics


Under a Glass Moon    Dream Theater



UNDER A GLASS MOON
                          As recorded by Dream Theater
                     (From the 1992 Album IMAGES AND WORDS)

Words by J. Petrucci

Music by M. Portnoy, K. Moore, J. Myung, J. Petrucci
Transcribed by Mark J. J. B. Sibbald

Gtr I (E A D G B E) - 'Untitled'
Gtr II (E A D G B E) - 'Untitled'
Gtr III (E A D G B E) - 'Untitled'
Gtr IV (E A D G B E) - 'Untitled'
Gtr V (E A D G B E) - 'Untitled'

   Intro
    Moderately Fast Rock Q=144
    N.C.(F#)
   4/4
    Gtr I
         ~~~~~~~~~~~~~~~~~                 ~
    Q.   E  +H        +H      a  H       a W
||-----------------|------------------|---------|
||o----------------|------------------|---------|
||--6S==11-(11)----|-(11)----11S13----|-13S9----|
||-----------------|------------------|---------|
||o-4S===9--(9)----|--(9)-----9S11----|-11S7----|
||-----------------|------------------|---------|


                                         1.
                 D5/A                     N.C.(F#)
   ~~~           ~~~~~~~~~~~~~~~              ~~~~~~
  +Q.   E H      W          +H     H      Q.  E +H
|--------------|----------|-------------|--------------|
|--------------|----------|-------------|--------------|
|-(9)---xS4----|-7--------|-(7)----6----|-4S==3-(3)----|
|--------------|-0--------|-(0)---------|--------------|
|-(7)---xS2----|-0--------|-(0)----4----|-2S==1-(1)----|
|--------------|----------|-------------|--------------|


                    2.
            \2           \0.5/                        \2.5
   ~~~                                       ~~
  +H.      +Q       Q.   a     E +Q   a Q    H.      +Q
|----------------||------------------------|----------------|
|---------------o||------------------------|----------------|
|-(3)------(3)---||-4----4S====3-(3)-------|----------------|
|----------------||-------------------4S5--|-4-------(4)----|
|-(1)------(1)--o||-2----2S====1-(1)-------|----------------|
|----------------||-------------------2S3--|-2-------(2)----|


  N.C.(F#)                                      (E/F#)
  Gtrs I, II
        ~~~~~~~~~~~~~~~~~                        ~~~~~~~~~~~~~~~~
   Q.   E  +H        +H        a  H              W           +H       a  H
|-----------------|------------------------|--------------|--------------------|
|-14S==19-(19)----|-(19)------19S21--------|----17--------|-(17)-----17S12-----|
|--6S==11-(11)----|-(11)--11-----11S13-13--|-13S=9--------|--(9)---x-----4S====|
|-----------------|------------------------|--------------|--------------------|
|--4S===9--(9)----|--(9)---9------9S11-11--|-11S=7--------|--(7)---x-----2S====|
|-----------------|------------------------|--------------|--------------------|
|  Q.   E  +H        +Q    Q      E  E  Q     a  W           +Q.   E     H
|
| Gtr III
|       ~~~~~~~~~~~~~~~~~                        ~~~~~~~~~~~~~~~~
|  Q.   E  +H        +H        a  H           a  W           +H          H
|-----------------|------------------------|--------------|--------------------|
|-----------------|------------------------|--------------|--------------------|
|-11S==15-(15)----|-(15)------15S16--------|-15S13--------|-(13)---------9-----|
|-----------------|------------------------|--------------|--------------------|
|-----------------|------------------------|--------------|--------------------|
|-----------------|------------------------|--------------|--------------------|
|
| Gtr IV
|       ~~~~~~~~~~~~~~~~~                        ~~~~~~~~~~~~~~~~
|  Q.   E  +H        +H        a  H           a  W           +H       a  H
|-----------------|------------------------|--------------|--------------------|
|-----------------|------------------------|--------------|--------------------|
|-11S==18-(18)----|-(18)------18S20--------|-20S16--------|-(16)-----16S=9-----|
|-----------------|------------------------|--------------|--------------------|
|-----------------|------------------------|--------------|--------------------|
|-----------------|------------------------|--------------|--------------------|


  (D/F#)
   ~~~~~~~~~~~~~~~~                    ~~~~~~~~~~~~~~~~~
   W           +H      H         Q.    E  +H        +W
|-----------|---------------|--------------------|---------|
|-15--------|-(15)----14----|---12----11-(11)----|-(11)----|
|--7--------|--(7)-----6----|-6S=4-----3--(3)----|--(3)----|
|-----------|---------------|--------------------|---------|
|--5--------|--(5)-----4----|-4S=2-----1--(1)----|--(1)----|
|-----------|---------------|--------------------|---------|
|  W           +H      H      a  Q.    E  +H        +W
|
|  ~~~~~~~~~~~~~~~~                    ~~~~~~~~~~~~~~~~~
|  W           +H      H         Q.    E  +H        +W
|-----------|---------------|--------------------|---------|
|-----------|---------------|--------------------|---------|
|-11--------|-(11)-----9----|--------------------|---------|
|-----------|---------------|---11----11-(11)----|-(11)----|
|-----------|---------------|--------------------|---------|
|-----------|---------------|--------------------|---------|
|
|  ~~~~~~~~~~~~~~~~                    ~~~~~~~~~~~~~~~~~
|  W           +H      H         Q.    E  +H        +W
|-----------|---------------|--------------------|---------|
|-----------|---------------|--------------------|---------|
|-11--------|-(11)-----9----|--------------------|---------|
|-----------|---------------|---11----11-(11)----|-(11)----|
|-----------|---------------|--------------------|---------|
|-----------|---------------|--------------------|---------|


  (F#)                                     (E/F#)
         ~~~~~~~~~~~~~~~~~                  ~~~~~~~~~~~~~~~~
   Q.    E  +H        +H      a  H          W           +H       H
|-------21-(21)----|-(21)----21S23----|----19--------|-(19)------------|
|-19---------------|------------------|--------------|----------19-----|
|--6----11-(11)----|-(11)----11S13----|-13S=9--------|--(9)---xS=4S====|
|------------------|------------------|--------------|-----------------|
|--4-----9--(9)----|--(9)-----9S11----|-11S=7--------|--(7)---xS=2S====|
|------------------|------------------|--------------|-----------------|
|  Q.    E  +H        +H      a  H       a  W           +Q.   E  H
|
|        ~~~~~~~~~~~~~~~~~                  ~~~~~~~~~~~~~~~~
|  Q.    E  +H        +H      a  H          W           +H       H
|-------18-(18)----|-(18)----18S19----|--------------|-----------------|
|-19---------------|------------------|----21--------|-(21)-----17-----|
|------------------|------------------|--------------|-----------------|
|------------------|------------------|--------------|-----------------|
|------------------|------------------|--------------|-----------------|
|------------------|------------------|--------------|-----------------|
|
|        ~~~~~~~~~~~~~~~~~                  ~~~~~~~~~~~~~~~~
|  Q.    E  +H        +H      a  H       a  W           +H       H
|------------------|------------------|--------------|-----------------|
|------------------|------------------|--------------|-----------------|
|-11----18-(18)----|-(18)----18S20----|-20S16--------|-(16)-----11-----|
|------------------|------------------|--------------|-----------------|
|------------------|------------------|--------------|-----------------|
|------------------|------------------|--------------|-----------------|


  (D/F#)                      (F#sus(F#)
   ~~~~~~~~~~~~~~~~                  ~~~~~~~~~~~~~~~~~
   W           +H      H       Q.    E  +H        +W
|-----------|---------------|------------------|--------------------|
|-22--------|-(22)----21----|-19----19-(19)----|-(19)---------------|
|--7--------|--(7)-----6----|--4-----3--(3)----|--(3)---------------|
|-----------|---------------|------------------|-------xS=xS=x------|
|--5--------|--(5)-----4----|--2-----1--(1)----|--(1)--xS=xS=x------|
|-----------|---------------|------------------|-------xS=xS=x-0-0--|
|  W           +H      H       Q.    E  +H        +Q   Q  Q  E S S
|
|  ~~~~~~~~~~~~~~~~            ~~~~~~~~~~~~~~~~~~~~~~~
|  W           +H      H       Q.    E  +H        +W
|-----------|---------------|------------------|--------------------|
|-19--------|-(19)----17----|------------------|--------------------|
|-----------|---------------|-16----16-(16)----|-(16)---------------|
|-----------|---------------|------------------|--------------------|
|-----------|---------------|------------------|--------------------|
|-----------|---------------|------------------|--------------------|
|
|  ~~~~~~~~~~~~~~~~                  ~~~~~~~~~~~~~~~~~
|  W           +H      H       Q.    E  +H        +W
|-----------|---------------|------------------|--------------------|
|-----------|---------------|------------------|--------------------|
|-14--------|-(14)----13----|-11----11-(11)----|-(11)---------------|
|-----------|---------------|------------------|--------------------|
|-----------|---------------|------------------|--------------------|
|-----------|---------------|------------------|--------------------|


  F#5 G5  F#5       G5  N.C.    F#5 N.C.                      F#5       G5
  Gtr I
                        PM----|     PM----------------------|
  S S S S E E E E E E   S S S S e E S S S S S S S S   S S S S e E E e E e
|---------------------|-----------------------------|----------------------|
|---------------------|-----------------------------|----------------------|
|---------------------|-----------------------------|----------------------|
|-4-4-5-5-4---x-4---5-|---------4-------------------|---------4---x-4---5--|
|-4-4-5-5-4---x-4---5-|---------4-------------------|---------4---x-4---5--|
|-2-2-3-3-2---x-2---3-|-2-2-3-3-2---2-2-3-3-2-2-0-0-|-2-2-3-3-2---x-2---3--|


  N.C.    F#5 N.C.
  PM----|     PM---------------
  S S S S E E S S S S S S S S
|-----------------------------|
|-----------------------------|
|-----------------------------|
|---------4-------------------|
|---------4-------------------|
|-2-2-3-3-2---5-3-0-0-3-2-0-0-|


          F#5       G5  N.C.    F#5 N.C.
 -------|               PM----|     PM------------|
  S S S S E E E E E E   S S S S E E S S S S S S S S
|---------------------|-----------------------------|
|---------------------|-----------------------------|
|---------------------|-----------------------------|
|---------4---x-4---5-|---------4-------------------|
|---------4---x-4---5-|---------4-------------------|
|-2-2-3-3-2---x-2---3-|-2-2-3-3-2---2-2-3-3-2-2-0-0-|


  PM--------------------------------------------------|   PM|
  S S S S S S S S S S S S S S S S   S S S S S S S S S S e S S e
|---------------------------------|------------------------------|
|---------------------------------|------------------------------|
|---------------------------------|------------------------------|
|---------------------------------|------------------------------|
|-4-2-4-2-----5-2-5-2-----4-2-4-2-|-----4-5-4-2------------------|
|---------3-2---------3-2---------|-3-2---------3-2-0-0-3-0-0-3--|


  F#b5                                  Gb5           F#b5
          PM|    PM|               PM|      PM|               PM|    PM|
   q   q  S S  e S S  e    q   q   S  S  e  S  S  e    q   q  S S  e S S  e
|-----------------------|---------------------------|-----------------------|
|-13--13------13-----13-|-13--13--------14-------14-|-13--13------13-----13-|
|-11--11------11-----11-|-11--11--------12-------12-|-11--11------11-----11-|
|-10--10------10-----10-|-10--10--------11-------11-|-10--10------10-----10-|
|--9---9--9-9--9-9-9--9-|--9---9--10-10-10-10-10-10-|--9---9--9-9--9-9-9--9-|
|-----------------------|---------------------------|-----------------------|


                                Bb5
   e  T  T  T  T  T  T  T  T  e  S  S E  S  E.
|----------------17----------------------------|
|-13----------19----19----------18-18---18-18\-|
|-11-------17----------17-------16-16---16-16\-|
|-10----16----------------16----15-15---15-15\-|
|--9-15----------------------15-14-14---14-14\-|
|----------------------------------------------|


  F#b5                                  Gb5
          PM|    PM|               PM|      PM|
   q   q  S S  e S S  e    q   q   S  S  e  S  S  e
|-----------------------|---------------------------|
|-13--13------13-----13-|-13--13--------14-------14-|
|-11--11------11-----11-|-11--11--------12-------12-|
|-10--10------10-----10-|-10--10--14-14-11-------11-|
|--9---9--9-9--9-9-9--9-|--9---9--------10-------10-|
|-----------------------|------------------12-12----|


  F#b5
          PM|    PM|
   q   q  S S  e S S  e
|-----------------------|
|-13--13------13-----13-|
|-11--11------11-----11-|
|-10--10------10-----10-|
|--9---9--9-9--9-9-9--9-|
|-----------------------|


                                Cb5              F#5   E5F#5     E5F#5
                                                6/4
                                                 PM----------------|
   e  T  T  T  T  T  T  T  T  e  S  S E  S  E.   Q  Q  E E E E E E Q
|----------------17----------------------------|------------------------|
|-13----------19----19----------19-19---19-19\-|------------------------|
|-11-------17----------17-------17-17---17-17\-|------------------------|
|-10----16----------------16----16-16---16-16\-|-4--4--2-4---4---2-4----|
|--9-15----------------------15-15-15---15-15\-|-4--4--2-4---4---2-4----|
|----------------------------------------------|-2--2--0-2---2---0-2----|


        E5F#5         E5  F#5      E5F#5     E5  F#5E5F#5     E5F#E5F#5
  PM--------------------------------------------------------------------|
  Q  Q  E E E E E E E E   Q  Q  Q  E E E E E E   Q  E E E E E E E E E S S
|-----------------------|----------------------|---------------------------||
|-----------------------|----------------------|---------------------------||
|-----------------------|----------------------|---------------------------||
|-4--4--2-4---4---4---2-|-4--4--4--2-4---4---2-|-4--2-4---4---2-4-2-4-x-x--||
|-4--4--2-4---4---4---2-|-4--4--4--2-4---4---2-|-4--2-4---4---2-4-2-4-x-x--||
|-2--2--0-2---2---2---0-|-2--2--2--0-2---2---0-|-2--0-2---2---0-2-0-2-x-x--||


   Verse 1
    F#5   E5F#5     E5F#5        E5F#5         E5  F#5      E5F#5     E5
    PM----------------------------------------------------------------|
    Q  Q  E E E E E E Q    Q  Q  E E E E E E E E   Q  Q  Q  E E E E E E
||-----------------------|-----------------------|-----------------------|
||o----------------------|-----------------------|-----------------------|
||-----------------------|-----------------------|-----------------------|
||--4--4--2-4---4---2-4--|-4--4--2-4---4---4---2-|-4--4--4--2-4---4---2--|
||o-4--4--2-4---4---2-4--|-4--4--2-4---4---4---2-|-4--4--4--2-4---4---2--|
||--2--2--0-2---2---0-2--|-2--2--0-2---2---2---0-|-2--2--2--0-2---2---0--|


  1.                           2.
  F#5E5F#5     E5F#E5F#5       F#5E5F#5     E5F#E5F#5
  PM--------------------------------------------------|
  Q  E E E E E E E E E S S     Q  E E E E E E E E E S S
|---------------------------||---------------------------||
|--------------------------o||---------------------------||
|---------------------------||---------------------------||
|-4--2-4---4---2-4-2-4-x-x--||-4--2-4---4---2-4-2-4-x-x--||
|-4--2-4---4---2-4-2-4-x-x-o||-4--2-4---4---2-4-2-4-x-x--||
|-2--0-2---2---0-2-0-2-x-x--||-2--0-2---2---0-2-0-2-x-x--||


 Pre-Chorus 1
  F#         F#sus2                    E             Esus2
           PM      PM   PM|                  PM    PM  PM|
   E  E  E E  E  E E  E E E  E  S  S   E E E E E E E E E E E S S
|------------------------------------|----------------------------|
|-11-11-11----9--9----9------9--9--9-|-9-9-9---9-9---7-----7-x-x--|
|-11-11-11---11-11---11-----11-11-11-|-9-9-9---9-9---9-----9-x-x--|
|-11-11-11---11-11---11-----11-11-11-|-9-9-9---9-9---9-----9-x-x--|
|--9--9--9-9--9--9-9--9-9-9--9--9--9-|-7-7-7-7-7-7-7-7-7-7-7-x-x--|
|------------------------------------|----------------------------|


  D       Dsus2               Bsus4 F#5     E5F#E5F#5
        PM    PM  PM|
  E E E E E E E E E E E S S   E E E E E E E E E E E S S
|---------------------------|---0------------------------|
|-7-7-7---5-5---5-----5-x-x-|-4--------------------------|
|-7-7-7---7-7---7-----7-x-x-|-4--------------------------|
|-7-7-7---7-7---7-----7-x-x-|-4---4-4---4---2-4-2-4-x-x--|
|-5-5-5-5-5-5-5-5-5-5-5-x-x-|-2-----4---4---2-4-2-4-x-x--|
|---------------------------|-------2---2---0-2-0-2-x-x--|


  F#sus2                             E       EsuE4  Esus2
           PM      PM   PM|                PM     PM  PM|
   E  E  E E  E  E E  E E E  E S S   E E E E  E E E E E E E S S
|----------------------------------|-----------------------------|
|--9--9--9----9--9----9------9-x-x-|-9-9-9---10-9---7-----7-x-x--|
|-11-11-11---11-11---11-----11-x-x-|-9-9-9----9-9---9-----9-x-x--|
|-11-11-11---11-11---11-----11-x-x-|-9-9-9----9-9---9-----9-x-x--|
|--9--9--9-9--9--9-9--9-9-9--9-x-x-|-7-7-7-7--7-7-7-7-7-7-7-x-x--|
|----------------------------------|-----------------------------|


  D       Dsus2               Bsus4F#5     E5F#E5F#5
        PM    PM  PM|
  E E E E E E E E E E E S S   Q.   E E E E E E E Q
|---------------------------|-2---------------------||
|-7-7-7---5-5---5-----5-x-x-|-5---------------------||
|-7-7-7---7-7---7-----7-x-x-|-4---------------------||
|-7-7-7---7-7---7-----7-x-x-|-4----4---4---2-4-2-4--||
|-5-5-5-5-5-5-5-5-5-5-5-x-x-|-2----4---4---2-4-2-4--||
|---------------------------|------2---2---0-2-0-2--||


 Chorus
  $
  N.C.    C#5   C#C#5s4 A/C#    C#7sus4 AmAsus2
 4/4
  PM----|   PM|     PM|     PM|     PM|
  S S S S E S S E E S S E   S S E E S S E Q.
|-------------------------|-------------0-0----|
|-------------------------|-------------0-0----|
|---------6-----4-6-----6-|-----4-4-----1-2----|
|---------6-----4-6-----7-|-----4-4-----2-2----|
|-4-4-4-4-4-4-4-4-4-4-4-4-|-4-4-4-4-0-0-0-0----|
|-------------------------|--------------------|


        F#madd9 F#5 N.C.                D7+9/EN.C.(C#5)
    PM|   PM|       PM          PM----|
  E S S E S S E E E E   E E E E S S E E S S
|-0-------------------|---------------------|
|-0-------------------|-----------------6---|
|-2-----2-------------|-----------------5---|
|-2-----6-----6-4-4---|-----------------4-4-|
|-0-----4-----4-4-4---|-3S4---5-------------|
|---0-2-2-2-2-2-2-2-0-|-----3---0-0-0-0-----|


  PM----------------------------|
  S S S S S S S S S S S S S S S S
|-----------------------------------|
|-----------------------------------|
|-----------------------------------|
|-6-6---------4-4-----6-7-6-4-------|
|-----4-4-4-4-----4-4---------4-4---|
|-----------------------------------|


  (E5)    A5N.C.(F#5)               Bsus2                G5 N.C.    F5
  PM----|   PM------------------|        PM          PM|
  S S S S E S S  S  S S S S S S S   Q.   E E E E E   E E Q  S S S S Q
|---------------------------------|--------2-------|-------------------|
|---------------------------------|-2--------2-----|-------------------|
|---------9-----------------------|-4----------4---|-------------------|
|-----9-9-7-----11-11-----9-9-----|-4------------4-|-----5----------3--|
|-7-7-------9-9-------9-9-----9-9-|-2----2---------|-----5----------3--|
|---------------------------------|----------------|-3-3-3--1-2-1-1-1--|


  N.C.    C#5   C#C#5s4 A/C#    C#7sus4 AmAsus2          F#madd9 F#5 N.C.
  PM----|   PM|     PM|     PM|     PM|              PM|   PM|       PM
  S S S S E S S E E S S E   S S E E S S E Q.     +E  S S E S S E E E E
|-------------------------|-------------0-0----|-(0)--------------------|
|-------------------------|-------------0-0----|-(0)--------------------|
|---------6-----4-6-----6-|-----4-4-----1-2----|-(2)-----2--------------|
|---------6-----4-6-----7-|-----4-4-----2-2----|-(2)-----6-----6-4-4----|
|-4-4-4-4-4-4-4-4-4-4-4-4-|-4-4-4-4-0-0-0-0----|-(0)-----4-----4-4-4----|
|-------------------------|--------------------|-----0-2-2-2-2-2-2-2-0--|


                  D7+9/EN.C.(C#5)
          PM----|       PM-------------------------------
  E E E E S S E E S S   S S S S S S S S S S S S S S S S
|---------------------|---------------------------------|
|-----------------6---|---------------------------------|
|-----------------5---|---------------------------------|
|-----------------4-4-|-6-6---------4-4-----6-7-6-4-----|
|-3S4---5-------------|-----4-4-4-4-----4-4---------4-4-|
|-----3---0-0-0-0-----|---------------------------------|


  (E5)    A5N.C.(F#5)
 -------|   PM------------------|
  S S S S E S S  S  S S S S S S S
|-----------------------------------|
|-----------------------------------|
|---------9-------------------------|
|-----9-9-7-----11-11-----9-9-------|
|-7-7-------9-9-------9-9-----9-9---|
|-----------------------------------|


          To Coda
  Bsus2            N.C.                                    A#G5
       PM           PM-----------------------------------|
                    |-----6-----|  |----6----| |----6----|
  Q.   E E E E E    S  S  S S S S  S S S S S S S S S S S S E E
|--------2-------|---------------------------------------------||
|-2--------2-----|---------------------------------------------||
|-4----------4---|---------------------------------------------||
|-4------------4-|-----------------------------------------8-5-||
|-2----2---------|-----------------------------------------8-5-||
|----------------|-12-11-10-0-8-9-10-9-8-0-6-7-8-7-6-0-0-0-6-3-||


 Interlude
  N.C.    F#5       G5  N.C.    F#5 N.C.                      F#5       G5
  PM----|               PM----|     PM----------------------|
  S S S S E E E E E E   S S S S E E S S S S S S S S   S S S S E E E E E E
|---------------------|-----------------------------|----------------------|
|---------------------|-----------------------------|----------------------|
|---------------------|-----------------------------|----------------------|
|---------4---x-4---5-|---------4-------------------|---------4---x-4---5--|
|---------4---x-4---5-|---------4-------------------|---------4---x-4---5--|
|-2-2-3-3-2---x-2---3-|-2-2-3-3-2---2-2-3-3-2-2-0-0-|-2-2-3-3-2---x-2---3--|


  F#5           D#C5    B5  N.C.    F#5           G5  N.C.          E5
                           5/4                       4/4
    PM------|               PM----|                   PM----------|
  E S S S S S S E.S +E  E   S S S S E E E E E E E E   S S S S S S S S E E E E
|-------------------------|-------------------------|-------------------------|
|-------------------------|-------------------------|-------------------------|
|---------------8S5-(5)-4-|-------------------------|-------------------------|
|-4-------------8S5-(5)-4-|---------4---x-4---4---5-|-------------------2---2-|
|-4-------------6S3-(3)-2-|---------4---x-4---4---5-|---------------2---2---2-|
|-2-0-0---0-0-------------|-2-2-3-3-2---x-2---2---3-|-2-2-3-3-2-2-0-0---0---0-|


  N.C.    F#5 N.C.                                  F5     N.C.      F#5
                                                          7/8
  PM----|     PM              PM~        ~
  S S S S E E E E E E   E E E E Q  E E   Q  S S E E Q.     S S S S E E Q  E
|---------------------|----------------|-----------------|--------------------||
|---------------------|----------------|-----------------|--------------------||
|---------------------|----------------|-----------------|--------------------||
|---------4---x-------|----------------|------------3----|-----------4--------||
|---------4---x-------|-3S4-3-0-7--4-7-|-6--2-0-----3----|-----------4--------||
|-2-2-3-3-2---2-2-5p2-|----------------|------------1----|-0-0---0-0-2--------||


  Esus4
 4/4
  Gtr V
   ~~~~~~~~~~~~~~~~~~~~~~~~~~~~~~~~~~~~~~~~
   W          +W            W          +W
|-^0--------|-(0)--------|-^0--------|-(0)----|
|-^0--------|-(0)--------|-^0--------|-(0)----|
|-^9--------|-(9)--------|-^9--------|-(9)----|
|-^7--------|-(7)--------|-^7--------|-(7)----|
|-----------|------------|-----------|--------|
|-----------|------------|-----------|--------|


  E5
   ~~~~~~~~~~~~~~~~~~~~~~~~~~~
   W          +W            W          Q.   E +H
|-^0--------|-(0)--------|-^0--------|-0-------------|
|-^0--------|-(0)--------|-^0--------|------0-(0)----|
|-^9--------|-(9)--------|-^9--------|---------------|
|-^9--------|-(9)--------|-^9--------|---------------|
|-----------|------------|-----------|---------------|
|-----------|------------|-----------|---------------|


  Esus4
   ~~~~~~~~~~~~~~~~~~~~~~~~~~~~~~~~~~~~~~~~
   W          +W            W          +W
|-^0--------|-(0)--------|-^0--------|-(0)----|
|-^0--------|-(0)--------|-^0--------|-(0)----|
|-^9--------|-(9)--------|-^9--------|-(9)----|
|-^7--------|-(7)--------|-^7--------|-(7)----|
|-----------|------------|-----------|--------|
|-----------|------------|-----------|--------|


   ~~~~~~~~~~~~~~~~~~~~~~~~~~~~~~~~~~~~~~~~
   W          +W            W          +W
|-^0--------|-(0)--------|-^0--------|-(0)----|
|-^0--------|-(0)--------|-^0--------|-(0)----|
|-^9--------|-(9)--------|-^9--------|-(9)----|
|-^7--------|-(7)--------|-^7--------|-(7)----|
|-----------|------------|-----------|--------|
|-----------|------------|-----------|--------|


 Pre-Chorus 2
  N.C.(A5)
  Gtr I
                       \0.5/
               ~~~              ~~~~~~~
  Q   Q   +E   Q.      Q.       E  +H
|-------------------|---------------------|
|----17--(17)-------|-16------------------|
|-------------16----|----------14-(14)----|
|-------------------|---------------------|
|-0-----------------|---------------------|
|-------------------|---------------------|


  (B5)
  \1/                  \0.5/
                ~~             ~~~~~~
  Q     Q   +E  Q.     Q.      E +H
|--------------------|------------------|
|------12--(12)-9----|------------------|
|--------------------|-9-------8-(8)----|
|--------------------|------------------|
|--------------------|------------------|
|-7------------------|------------------|


                                                         D.S. al Coda
  F#sus4
                    ~~                          ~~~~~~~~~~~~~~~~~~
  E E Q  +E  Q.     Q.   E +Q   Q    E E Q  +E  Q.     Q.   E +Q   Q
|-----0--(0)------|----------------|-----------------|----------------||
|------------0----|----------------|-----0--(0)------|----------------||
|-----------------|-3--------------|------------3----|----------------||
|-----------------|------4-(4)--2--|-----------------|-4----2-(2)-----||
|-----------------|----------------|-----------------|-------------4--||
|-0h2-------------|----------------|-0h2-------------|----------------||


  &
  N.C.                                    A#G5
   PM-----------------------------------|
   |-----6-----|  |----6----| |----6----|
   S  S  S S S S  S S S S S S S S S S S S E E
|---------------------------------------------|
|---------------------------------------------|
|---------------------------------------------|
|-----------------------------------------8-5-|
|-----------------------------------------8-5-|
|-12-11-10-0-8-9-10-9-8-0-6-7-8-7-6-0-0-0-6-3-|


  N.C.                                    A#G5
   PM-----------------------------------|
   |-----6-----|  |----6----| |----6----|
   S  S  S S S S  S S S S S S S S S S S S E E
|----------------------------------------------||
|----------------------------------------------||
|----------------------------------------------||
|-----------------------------------------8-5--||
|-----------------------------------------8-5--||
|-12-11-10-0-8-9-10-9-8-0-6-7-8-7-6-0-0-0-6-3--||


 Interlude 2
  N.C.(F#5)
 11/4
                                  |-3-|
  Q  Q  E E Q  E E Q  Q  Q  Q  Q  S S S E
|-----------------------------------------|
|-----------------------------------------|
|-----------------------------------------|
|-4--4------4----4----------4--4--2h4p2---|
|---------4-----------4-----------------4-|
|-----------------------------------------|


  PM-|      PM        PM-------|
                                  |-3-|
  Q  Q  E E Q  E E Q  Q  Q  Q  Q  S S S E
|-------------------------------------------|
|-------------------------------------------|
|-------------------------------------------|
|-4--4------4----4----------4--4--2h4p2-----|
|-4--4----4-----------4-----------------4---|
|-2--2--------------------------------------|


  PM-|      PM        PM-------|
                                  |-3-|
  Q  Q  E E Q  E E Q  Q  Q  Q  Q  S S S E
|-----------------------------------------|
|-----------------------------------------|
|-----------------------------------------|
|-4--4------4----4----------4--4--2h4p2---|
|-4--4----4-----------4-----------------4-|
|-2--2------------------------------------|


  PM-|      PM        PM-------|
                                  |-3-|
  Q  Q  E E Q  E E Q  Q  Q  Q  Q  S S S E
|--------------------------------------------|
|--------------------------------------------|
|--------------------------------------------|
|-4--4------4----4----------4--4--2h4p2------|
|-4--4----4-----------4-----------------4----|
|-2--2---------------------------------------|


                                            |-3-|
  E E E E E S S E E E E E E S S E E E E E E S S S E E
|-----------------------------------------------------|
|-----------------------------------------------------|
|-----------------------------------------------------|
|-----------------------------------------------------|
|-4-6-4-6-7-------4-6---4-7-----4-6-4---2---0h2p0-----|
|-----------2-2-2-----2-----2-2-------2---2-------2-0-|


                                            |-3-|
  E E E E E S S E E E E E E S S E E E E E E S S S E E
|--------------------------------------------------------|
|--------------------------------------------------------|
|--------------------------------------------------------|
|--------------------------------------------------------|
|-4-6-4-6-7-------4-6---4-7-----4-6-4---2---0h2p0--------|
|-----------2-2-2-----2-----2-2-------2---2-------2-0----|


          ~~
  E E E E Q.   E E S S E E +E  E E E S S E S S E S S E
|------------------------------------------------------|
|------------------------------------------------------|
|----------------------------------------4-------------|
|-4-6-4-6-7----4-6-----4-7-(7)-4-6-4-----4-----4-----4-|
|-4-6-4-6-7----4-6-0-0-4-7-(7)-4-6-4-0-0-2-----4-----4-|
|------------------------------------------2-2-2-0-0-2-|


                                                        4/4
          ~~
  E E E E Q.   E E S S E E +E  E E E S S E S S E S S E   W
|------------------------------------------------------|------||
|------------------------------------------------------|------||
|----------------------------------------4-------------|------||
|-4-6-4-6-7----4-6-----4-7-(7)-4-6-4-----4-----4-----4-|------||
|-4-6-4-6-7----4-6-0-0-4-7-(7)-4-6-4-0-0-2-----4-----4-|------||
|------------------------------------------2-2-2-0-0-2-|------||


  (F#m)
  Gtr II
           ~~~~~~~~~~~~
   a       H      +Q.     S      S         S       +S   S  S  S  S  S S S  S  S S S  S  S S
|---------12-----(12)------------------|----------------------------------------------------|
|-12b14==(12)----(12)r---12pb14-12pb14-|-[12]pb14r(12)-12-12-12S[7]-7-7-7S[9]-9-9-9S[5]-5-5-|
|--------------------------------------|----------------------------------------------------|
|--------------------------------------|----------------------------------------------------|
|--------------------------------------|----------------------------------------------------|
|--------------------------------------|----------------------------------------------------|


  (E/F#)
  a a a E S S S S  S     +S  +S  S S S S S  E
|----------------------------------------------|
|-------4-5-4----------------------------------|
|-----x-------6-4-[6]b8==(6)r(6)-4-------------|
|---x------------------------------6-4---------|
|-x------------------------------------6-4-[6]-|
|----------------------------------------------|


  +S  a  E  S  S  S  S  S  S S  S S  S S  S S
|----------12-16-12---------------------------|
|-----7S16----------16-12---------------------|
|-------------------------13-9----------------|
|------------------------------13-9-----------|
|-(6)-------------------------------11-7------|
|----------------------------------------11-7-|


  (E)
                   \3.5     \0.5/
  |--3---|                        |-3-|   |-3-|
  Q  Q   Q   +E    Q.       E     S S S E S S S  Q.       +S  S
|-------------------------|-------------------------------------|
|-------------------------|-5h====7p5p0-7h9p7p0-12pb14r==(12)p9-|
|-------------------------|-------------------------------------|
|-------------------------|-------------------------------------|
|-------------------------|-------------------------------------|
|-0---()------|-------------------------------------|


  (D/F#)
                                                  ~~~~
                                      |----5----|
   S      +E.      +S   +S       +E   S  S S  S S Q
|----------------------------------------------------|
|-11pb12r(11)b12==(11)r(11)b12==(11)r-9--------------|
|---------------------------------------11-9---------|
|--------------------------------------------11-9S8--|
|----------------------------------------------------|
|----------------------------------------------------|


                                                            (C#m)
 ~~~~~
       |-3--|  |-----6------|  |----6-----|  |----6-----|
  +E   S S  S  S  S S  S  S S  S S S  S S S  S S S  S S S   E  E E  E S S E  S  S  S  S
|--------9-11-12p11p9-------------------------------------|-----------------12-12-12-12---|
|-----12--------------12-10-9-----------------------------|-----------------11-11-11-11---|
|-----------------------------11-9-8----------------------|-------------------------------|
|-(8)--------------------------------11-9-7---------------|--------11---------------------|
|-------------------------------------------11-9-7--------|---11--------------------------|
|--------------------------------------------------11-9-7-|-9----9----x-0-9---------------|


            ~                ~                      ~~~~~~
  S S  S  S Q   S S S  S S S E   a E  E E  E S S E  Q
|------------------------------|---------------------------|
|-----------9------------------|-------------------12pb14--|
|-----------9------------------|---------------------------|
|--------------11-9------------|----------11---------------|
|-x-x-10-11---------9-10S9p7---|-----11--------------------|
|----------------------------9-|-7s9----9----x-0-9---------|


                                  ~
  S  S S  S S  S  S S  S S  E     Q
|-9----------------------------------|
|---12p9----9------------------------|
|--------12---12S11p9-11p9-11pb13-9--|
|------------------------------------|
|------------------------------------|
|------------------------------------|


    (Bmaj7+11)
              ~~~~~~~          ~~
  a  E  E  E  E  +E   S  S  E  E   E  S  S  S  S  S  S  S  S  S  S  S  S  E
|------------14-(14)-13-11-------|------13-14-16-14-13-12-13----13----------|
|------12------------------14-12-|---16----------------------16----16-14-16-|
|-9s11----11---------------------|------------------------------------------|
|--------------------------------|------------------------------------------|
|--------------------------------|------------------------------------------|
|--------------------------------|------------------------------------------|


                        ~~~~~~~
      |-----5-----|
   E  T  T  T  T  T  E  E  +E   E  E  E
|-19-14---------------------------------|
|-------16------------------------------|
|----------16----------16-(16)-------18-|
|-------------16------------------16----|
|----------------18-14---------14-------|
|---------------------------------------|


                                       |--3--|
   S  S  S  S  S  S  S  S  S  S  S  S  S  S  S  S  S
|-------------------------------------14h16h18p16p14-|
|----------------------------14-16-17----------------|
|-------------------13-15-16-------------------------|
|----------13-14-16----------------------------------|
|-13-14-16-------------------------------------------|
|----------------------------------------------------|


  (F#m)
           ~~~~~~
   Q       Q       +Q     E  E    S  S  S  S  S  S  S  S  S  S  S  S  S  S  S  S
|-19pb21--19pb21--(19)\--------|-19-------16-------19-------16-------19-------14---|
|------------------------12S17-|----17S14----14S17----17S14----14S17----17S14------|
|------------------------------|---------------------------------------------------|
|------------------------------|---------------------------------------------------|
|------------------------------|---------------------------------------------------|
|------------------------------|---------------------------------------------------|


  (E/F#)
          |--3--|         |--3--|
   E      S  S  S  E      S  S  S  S       +S    E       +S    S  S      S
|--------14--------------14-----------------------------------14--------14-|
|-17pb19----17-14-17pb19----17-14-17pb19==(17)r-17pb19==(17)r----17pb19----|
|--------------------------------------------------------------------------|
|--------------------------------------------------------------------------|
|--------------------------------------------------------------------------|
|--------------------------------------------------------------------------|


                                                 (E)
                                                           \1/
                                                 |-3-|
   S  S  S  S  S  S  S  S  S  S  S  S  S  S  E   Q Q Q +E  Q    E
|----------------------------------------------|-------------------|
|-17-16-14-------------------------------------|-------------------|
|----------17-16-15-14-------------------------|----------------4--|
|----------------------16-14-------------16----|-----4-(4)S6-------|
|----------------------------16-15-14-13----13-|---2---------------|
|----------------------------------------------|-0-----------------|


                T                  T
                                                   |-3-|
  S    +S  +E   S      +S   +E  E  S      +S   +E  S S S
|---------------------------------12b14==(12)r(12)p6h7p6p|
|-5b7==(5)r(5)-12b14==(12)r(12)p5------------------------|
|--------------------------------------------------------|
|--------------------------------------------------------|
|--------------------------------------------------------|
|--------------------------------------------------------|


            |--3--|  |----------9:8----------|  |----------10:8------------|
  E. S +E.  T  T  T  T  T  T  T  T  T  T  T  T  T  T  T  T  T  T  T  T  T  T
|-0--0-(0)----------12-12-------------------12-14h16h18p16p14p12-12-----------|
|----0-(0)-------14-------14-------------14-------------------------14--------|
|-------------16-------------16-------16-------------------------------16-----|
|----------18-------------------18-18-------------------------------------18--|
|-----------------------------------------------------------------------------|
|-----------------------------------------------------------------------------|


                        T                       T                       T
   |-------7:8-------|                                                  |----------9:8----------|
   T  T  T  T  T  T  T  T  T  T  T  T  T  T  T  T  T  T  T  T  T  T  T  T  T  T  T  T  T  T  T  T
|----------12-14h16h18-21p18-16p14p12h14h16h18-21p18-16p14p12h14h16h18-21p18-16p14p12-12----------|
|-------14-------------------------------------------------------------------------------14-------|
|----16-------------------------------------------------------------------------------------16----|
|-18-------------------------------------------------------------------------------------------18-|
|-------------------------------------------------------------------------------------------------|
|-------------------------------------------------------------------------------------------------|


  (C#m)
               \2
   H.          Q
|-------------------|
|-14pb16r=====14----|
|-------------------|
|-------------------|
|-------------------|
|-------------------|


                                                                   ~~
   S      +S    S  S      +S    S  S      +S    S  S      +S    S  Q
|---------------------------------------------------------------------|
|-11b12==(11)r-14-11b12==(11)r-14-11b12==(11)r-14-11b12==(11)r-14p11--|
|---------------------------------------------------------------------|
|---------------------------------------------------------------------|
|---------------------------------------------------------------------|
|---------------------------------------------------------------------|


   S  S  S  S  S  S  S  S  S  S  S  S  S  S  S  S
|----------------------11-12p11----14p11----16p12--|
|-12p11----12-14p11-------------12-------12--------|
|-------13----------13-----------------------------|
|--------------------------------------------------|
|--------------------------------------------------|
|--------------------------------------------------|


                        ~~~~~~~~~~~~~                            ~~~~~~~~~~~~~~
                                           |-----3-----|
   S  S  S  S  S  S  S  S       +H         Q      +Q   Q  E.     S      +S   S  S  S
|----18p14----19p16----19pb21==(19)r----|--------------------------------------------|
|-14-------16-------17------------------|-19pb21r(19)-16-----------------------------|
|---------------------------------------|----------------18pb20-18pb20r(18)-16----16-|
|---------------------------------------|--------------------------------------18----|
|---------------------------------------|--------------------------------------------|
|---------------------------------------|--------------------------------------------|


                                       ~~~~
   E      E      +S   S  S  S  S  E.  +Q
|-------------------------------------------|
|-------------------------------------------|
|-18pb20-18pb20r(18)-16----16h18p16--(16)---|
|-----------------------18------------------|
|-------------------------------------------|
|-------------------------------------------|


   |------------11:8-------------|  |------------11:8-------------|
   S  S  S  S  S  S  S  S  S  S  S  S  S  S  S  S  S  S  S  S  S  S
|-------------------------16-17-18-19-19-18-17-16-------------------|
|-------------16-17-18-19-------------------------19-18-17-16-------|
|-15-16-17-18-------------------------------------------------18-17-|
|-------------------------------------------------------------------|
|-------------------------------------------------------------------|
|-------------------------------------------------------------------|


   |------------11:8-------------|  |------------11:8-------------|
   S  S  S  S  S  S  S  S  S  S  S  S  S  S  S  S  S  S  S  S  S  S
|-------------------------------------------------------------------||
|-------------------------------------------------------------------||
|-16-15-18-17-16-15-------------------------------------------------||
|-------------------18-17-16-14-------------------------------------||
|-------------------------------18-17-16-14-------------------------||
|-------------------------------------------18-17-16-14-13-12-11-10-||


  C#sus2/G#
 7/8
  Gtr I
                                       \1.5    \1.5____/1______|
  ~~~~~~~~~~~~~~~~~~~~~~~~~~~~~                                ~~~~~
  H..         +H..         +Q.        +E    E  E      +E      +H..
|-----------|------------|---------------------------------|----------||
|-----------|------------|---------------------------------|----------||
|-----------|------------|------------------------()-|-()----||
|-----------|------------|---------------------------------|----------||
|-----------|------------|---------------------------------|----------||
|-9---------|-(9)--------|-(9)--------(9)------------------|----------||
|
| Gtr II
|                                \1.5          \1.5____/1______|
|                           ~~~
| H..         +H..         +Q   +Q          E  E      +E      +H..
|-4---------|-(4)--------|-(4)--(4)------------------------|----------||
|-4---------|-(4)--------|-(4)--(4)------------------------|----------||
|-6---------|-(6)--------|-(6)--(6)------------4------(4)--|--(4)-----||
|-6---------|-(6)--------|-(6)--(6)------------------------|----------||
|-4---------|-(4)--------|-(4)--(4)------------------------|----------||
|-4---------|-(4)--------|-(4)--(4)------------------------|----------||


   Keyboard Solo
    C#sus2/G#                D#sus2/A#
    Gtr I
    ~~~~~~~~~~~~~~~~         ~~~~~~~~~~~~~~~~
    H..         +H.      E   H..         +H.      E
||--4---------|-(4)--------|-6---------|-(6)--------|
||o-4---------|-(4)--------|-6---------|-(6)--------|
||--6---------|-(6)--------|-8---------|-(8)--------|
||--6---------|-(6)--------|-8---------|-(8)--------|
||o-4---------|-(4)--------|-6---------|-(6)--------|
||--4---------|-(4)--------|-6---------|-(6)--------|


  F#sus2/G#                  Esus2/B
   ~~~~~~~~~~~~~~~~~         ~~~~~~~~~~~~~~~~
   H..          +H.      E   H..         +H.      E   3x
|--9---------|--(9)--------|-7---------|-(7)----------||
|--9---------|--(9)--------|-7---------|-(7)---------o||
|-11---------|-(11)--------|-9---------|-(9)----------||
|-11---------|-(11)--------|-9---------|-(9)----------||
|--9---------|--(9)--------|-7---------|-(7)---------o||
|--9---------|--(9)--------|-7---------|-(7)----------||


 Interlude 3
  C#sus2/G#                               D#sus2/A#
 7/4
  S S S S Q  E E E E S S S S Q  S S S S   S S S S Q  E E E E E E S S E S S E
|-4-4-4-4-4----4---4-4-4-4-4-4--4-4-4-4-|-6-6-6-6-6----6---6---6-6-6---6-6-----|
|-4-4-4-4-4----4---4-4-4-4-4-4--4-4-4-4-|-6-6-6-6-6----6---6---6-6-6---6-6-----|
|-6-6-6-6-6----6---6-6-6-6-6-6--6-6-6-6-|-8-8-8-8-8----8---8---8-8-8---8-8-----|
|-6-6-6-6-6----6---6-6-6-6-6-6--6-6-6-6-|-8-8-8-8-8----8---8---8-8-8---8-8-----|
|-4-4-4-4-4----4---4-4-4-4-4-4--4-4-4-4-|-6-6-6-6-6----6---6---6-6-6---6-6-----|
|-4-4-4-4-4----4---4-4-4-4-4-4--4-4-4-4-|-6-6-6-6-6----6---6---6-6-6---6-6-----|


  F#sus2/G#
   S  S  S  S  Q  E  S  S  S  S  E Q  E  S  S  S  S E
|--9--9--9--9--9-----9--9--9--9--9-------9--9--9--9---|
|--9--9--9--9--9-----9--9--9--9--9-------9--9--9--9---|
|-11-11-11-11-11----11-11-11-11-11------11-11-11-11---|
|-11-11-11-11-11----11-11-11-11-11------11-11-11-11---|
|--9--9--9--9--9-----9--9--9--9--9-------9--9--9--9---|
|--9--9--9--9--9-----9--9--9--9--9-------9--9--9--9---|


      Esus2/B
   Q  S S S S Q  E E E E E E Q
|--9--7-7-7-7-7--7-7---7---7-7--||
|--9--7-7-7-7-7--7-7---7---7-7--||
|-11--9-9-9-9-9--9-9---9---9-9--||
|-11--9-9-9-9-9--9-9---9---9-9--||
|--9--7-7-7-7-7--7-7---7---7-7--||
|--9--7-7-7-7-7--7-7---7---7-7--||


 Chorus
          C#5   C#C#5s4 A/C#    C#7sus4 AmAsus2
 4/4
  PM----|   PM|     PM|     PM|     PM|
  S S S S E S S E E S S E   S S E E S S E Q.
|-------------------------|-------------0-0----|
|-------------------------|-------------0-0----|
|---------6-----4-6-----6-|-----4-4-----1-2----|
|---------6-----4-6-----7-|-----4-4-----2-2----|
|-4-4-4-4-4-4-4-4-4-4-4-4-|-4-4-4-4-0-0-0-0----|
|-------------------------|--------------------|


          F#sus2                 Bsus2                  C#5   C#C#5sE5
            PM|              PM|   PM|          PM----|   PM|
  +E  S S E S S E E Q    +E  S S E S S E E Q    S S S S E S S E E E E
|-(0)------------------|---------2-----2-2-2--|-----------------------|
|-(0)------------------|---------2-----2-2-2--|-----------------------|
|-(2)------------------|---------4-----4-4-4--|---------6-----4-6-6s9-|
|-(2)-----6-----6-6-6--|-(6)-----4-----4-4-4--|---------6-----4-6-6s9-|
|-(0)-----4-----4-4-4--|-(4)-2-2-2-2-2-2-2-2--|-4-4-4-4-4-4-4-4-4-4s7-|
|-----0h2-2-2-2-2-2-2--|-(2)------------------|-----------------------|


  E     F#5F#          Bsus4          G5     F5

  E E E  E  Q  a E E   Q  Q  Q  E E   Q  E E Q  E E
|--------------------|-0------------|----0------0----|
|-9--------11--------|----4---------|------0------0--|
|-9---9S11-11--------|-------4------|----------------|
|-9---9S11-11--------|----------4---|-5------3-------|
|-7-7-7S=9--9--9S4-2-|--------------|-5------3-------|
|--------------------|------------0-|-3------1-------|


          C#5   C#C#5s4 A/C#    C#7sus4 AmAsus2
  PM----|   PM|     PM|     PM|     PM|
  S S S S E S S E E S S E   S S E E S S E Q.
|-------------------------|-------------0-0----|
|-------------------------|-------------0-0----|
|---------6-----4-6-----6-|-----4-4-----1-2----|
|---------6-----4-6-----7-|-----4-4-----2-2----|
|-4-4-4-4-4-4-4-4-4-4-4-4-|-4-4-4-4-0-0-0-0----|
|-------------------------|--------------------|


          F#sus2                 Bsus2                       C#5   C#C#5sE5
      PM|   PM|              PM|   PM----|   PM|     PM----|   PM|
  +E  S S E S S E Q.     +E  S S E S S S S E S S E   S S S S E S S E E E E
|-(0)------------------|---------2---------2-----2-|-----------------------|
|-(0)------------------|---------2---------2-----2-|-----------------------|
|-(2)------------------|---------4---------4-----4-|---------6-----4-6-6s9-|
|-(2)-----6-----6-6----|-(6)-----4---------4-----4-|---------6-----4-6-6s9-|
|-(0)-----4-----4-4----|-(4)-2-2-2-2-2-2-2-2-2-2-2-|-4-4-4-4-4-4-4-4-4-4s7-|
|-----0-2-2-2-2-2-2----|-(2)-----------------------|-----------------------|


  E   E5F#5F#
  E E E  E  Q  a E E   Q  Q  Q  E  E
|--------------------|-0--------------|
|-9--------11--------|----4-----------|
|-9---9S11-11--------|-------4--------|
|-9---9S11-11--------|----------4-(0)-|
|-7-7-7S=9--9--9S4-2-|------------(0)-|
|--------------------|----------------|


  N.C.                                    A#G5
   PM-----------------------------------|
   |-----6-----|  |----6----| |----6----|
   S  S  S S S S  S S S S S S S S S S S S E E
|----------------------------------------------||
|----------------------------------------------||
|----------------------------------------------||
|-----------------------------------------8-5--||
|-----------------------------------------8-5--||
|-12-11-10-0-8-9-10-9-8-0-6-7-8-7-6-0-0-0-6-3--||


 Outro
  F#5/C#                        Esus2
  Q.   E +H       +H     H      H    H      H    H
|---------------|--------4----|-----------|-----------|
|------7-(7)----|-(7)---------|-7---------|-7---------|
|-6-------------|-------------|-9----9----|------9----|
|-4-------------|-------------|-9---------|-----------|
|-4-------------|-------------|-7---------|-----------|
|---------------|-------------|-----------|-----------|


  D5/A
  H    +E  Q  E   a  H    Q  Q
|---------------|---------------|
|---------------|---------------|
|-7----(7)-7s=9-|-9s11----9--7--|
|-0----(0)-0----|---------------|
|-0----(0)------|---------------|
|---------------|---------------|


  N.C.    F#5N.C.                      E5F#5
  PM----|             ~~~~~~~~
  S S S S Q  S E. +E  E   +E  Q  E +E  E S S E
|-----------------------|-----------------------*|
|-----------------------|-----------------------*|
|-----------------------|-----------------------*|
|---------4--x----------|--------------2-4-4----*|
|---------4--x--------3-|-(3)----1-(1)-2-4-4----*|
|-2-2-3-3-2--x-2--(2)---|-----0--------0-2-2----*|


Duration Legend
---------------
W - whole; H - half; Q - quarter; E - 8th; S - 16th; T - 32nd; X - 64th; a - acciaccatura
+ - note tied to previous; . - note dotted; .. - note double dotted
Uncapitalized letters represent notes that are staccato (1/2 duration)
Irregular groupings are notated above the duration line
Duration letters will always appear directly above the note/fret number it represents the
duration for.  Duration letters with no fret number below them represent rests.  Multi-
bar rests are notated in the form Wxn, where n is the number of bars to rest for.  Low
melody durations appear below the staff

Tablature Legend
----------------
 h   - hammer-on
 p   - pull-off
 b   - bend
 pb  - pre-bend
 r   - bend release (if no number after the r, then release immediately)
 /\  - slide into or out of (from/to "nowhere")
 s   - legato slide
 S   - shift slide
  - natural harmonic
[n]  - artificial harmonic
n(n) - tapped harmonic
 ~   - vibrato
 tr  - trill
 T   - tap
 TP  - trem. picking
 PM  - palm muting
\n/  - tremolo bar dip; n = amount to dip
 \n  - tremolo bar down
 n/  - tremolo bar up
/n\  - tremolo bar inverted dip
 =   - hold bend; also acts as connecting device for hammers/pulls
   - volume swell (louder/softer)
 x   - on rhythm slash represents muted slash
 o   - on rhythm slash represents single note slash

Misc Legend
-----------
 |  - bar
||  - double bar
||o - repeat start
o|| - repeat end
*|  - double bar (ending)
 :  - bar (freetime)
 $  - Segno
 &  - Coda
Tempo markers -  = BPM(8/16=s8/s16), where s8 = swing 8ths, s16 = swing 16ths


***************************************************************************************
* Generated using Power Tab Editor by Brad Larsen - http://powertab.guitarnetwork.org *


Important: The song above is NOT stored on the Chordie server. The original song is hosted at www.xguitar.com. Chordie works as a search engine and provides on-the-fly formatting. Chordie does not index songs against artists'/composers' will. To remove this song please click here.

This song is displayed as text-only. Transposing and tuning is only available for chordpro-songs.

Login - add to songbook

Rating click stars to rate

Layout
Accuracy

SHARE PAGE  




You need to log in to post comments