Guitar Tabs, Chords and Lyrics


Root Of All Evil    Dream Theater



The Root of All Evil
Lyrics by Mike Portnoy, John Petrucci


D#||------------------|------------------|------------------|------------------|
A#||------------------|------------------|------------------|------------------|
F#||------------------|------------------|------------------|------------------|
C#||------------------|------------------|------------------|------------------|
G#||------------------|------------------|------------------|------------------|
D#||------------------|------------------|------------------|------------------|


                                                                       F/5-
------------------|------------------|------------------|--------------2----|
------------------|------------------|------------------|-------------------|
------------------|------------------|------------------|--------------5----|
------------------|------------------|------------------|--------------4----|
------------------|------------------|------------------|-------------------|
------------------|------------------|------------------|-------------------|



--2----2----2--------|------------------|------------------|------------------|
---------------------|------------------|------------------|------------------|
--5----5----5--------|------------------|------------------|------------------|
--4----4----4--------|------------------|------------------|------------------|
---------------------|------------------|------------------|------------------|
---------------------|------------------|------------------|------------------|


                                                                       F/5-
------------------|------------------|------------------|--------------------|
------------------|------------------|------------------|--------------------|
------------------|------------------|------------------|--------------11----|
------------------|------------------|------------------|--------------10----|
------------------|------------------|------------------|--------------9-----|
------------------|------------------|------------------|--------------------|



------------------------|------------------|------------------|
------------------------|------------------|------------------|
--11----11----11--------|------------------|------------------|
--10----10----10--------|------------------|------------------|
--9-----9-----9---------|------------------|------------------|
------------------------|------------------|------------------|


                                 F/5-                                    F/5-
------------------|--------------------|------------------|--------------------|
------------------|--------------------|------------------|--------------------|
------------------|--------------11----|------------------|--------------11----|
------------------|--------------10----|------------------|--------------10----|
------------------|--------------9-----|------------------|--------------9-----|
------------------|--------------------|------------------|--------------------|


                                 F/5-                                    F/5-
------------------|--------------------|------------------|--------------------|
------------------|--------------------|------------------|--------------------|
------------------|--------------11----|------------------|--------------11----|
------------------|--------------10----|------------------|--------------10----|
------------------|--------------9-----|------------------|--------------9-----|
------------------|--------------------|------------------|--------------------|



--------------------------|--------------------------|
--------------------------|--------------------------|
--------------------------|--------------------------|
--------------------------|--------------------------|
-----------------------3--|-----2--0--1--2-----------|
--2--0--2--5--0--1--2-----|--2--------------2--3--0--|



--------------------------|--------------------------|
--------------------------|--------------------------|
--------------------------|--------------------------|
--------------------------|--------------------------|
-----------------------3--|-----2--0--1--2-----------|
--2--0--2--5--0--1--2-----|--2--------------2--3--0--|



--------------------------|--------------------------|
--------------------------|--------------------------|
--------------------------|--------------------------|
--------------------------|--------------------------|
-----------------------3--|-----2--0--1--2-----------|
--2--0--2--5--0--1--2-----|--2--------------2--3--0--|



--------------------------|--------------------------|-------------------------|
--------------------------|--------------------------|-------------------------|
--------------------------|--------------------------|-------------------------|
--------------------------|--------------------------|--4--------4----------4--|
-----------------------3--|-----2--0--1--2-----------|--4--2--5--4----2--5--4--|
--2--0--2--5--0--1--2-----|--2--------------2--3--0--|--2--0--3--2----0--3--2--|



------------------------|-------------------------|------------------------|
------------------------|-------------------------|------------------------|
------------------------|-------------------------|---------------------2--|
----------4----------5--|--4--------4----------4--|----------4----------2--|
----2--5--4----2--4--5--|--4--2--5--4----2--5--4--|----2--5--4----2--4--0--|
----0--3--2----0--2--3--|--2--0--3--2----0--3--2--|----0--3--2----0--2-----|



-------------------------|------------------------|-------------------------|
-------------------------|------------------------|-------------------------|
-------------------------|------------------------|-------------------------|
--4--------4----------4--|----------4----------5--|--4--------4----------4--|
--4--2--5--4----2--5--4--|----2--5--4----2--4--5--|--4--2--5--4----2--5--4--|
--2--0--3--2----0--3--2--|----0--3--2----0--2--3--|--2--0--3--2----0--3--2--|



----------------------------|-------------------------|------------------------|
----------------------------|-------------------------|------------------------|
----------------------------|-------------------------|------------------------|
-----------------------2----|-------------------------|------------------------|
----2--5--4--3----4----2----|--4--2--5--4----2--5--4--|----2--5--4----2--4--5--|
----0--3--2--3----4---------|--2--0--3--2----0--3--2--|----0--3--2----0--2--3--|



-------------------------|------------------------|-------------------------|
-------------------------|------------------------|-------------------------|
-------------------------|------------------------|-------------------------|
-------------------------|---------------------2--|-------------------------|
--4--2--5--4----2--5--4--|----2--5--4----2--4--0--|--4--2--5--4----2--5--4--|
--2--0--3--2----0--3--2--|----0--3--2----0--2-----|--2--0--3--2----0--3--2--|



------------------------|-------------------------|------------------------|
------------------------|-------------------------|------------------------|
------------------------|-------------------------|------------------------|
------------------------|-------------------------|---------------------2--|
----2--5--4----2--4--5--|--4--2--5--4----2--5--4--|----2--5--4----2--4--0--|
----0--3--2----0--2--3--|--2--0--3--2----0--3--2--|----0--3--2----0--2-----|



-------------------------|------------------------|-------------------------|
-------------------------|------------------------|-------------------------|
-------------------------|------------------------|-------------------------|
-------------------------|------------------------|-------------------------|
--4--2--5--4----2--5--4--|----2--5--4----2--4--5--|--4--2--5--4----2--5--4--|
--2--0--3--2----0--3--2--|----0--3--2----0--2--3--|--2--0--3--2----0--3--2--|



------------------------|-------------------------|------------------------|
------------------------|-------------------------|------------------------|
------------------------|-------------------------|------------------------|
---------------------2--|-------------------------|------------------------|
----2--5--4----2--4--0--|--4--2--5--4----2--5--4--|----2--5--4----2--4--5--|
----0--3--2----0--2-----|--2--0--3--2----0--3--2--|----0--3--2----0--2--3--|



-------------------------|------------------------|-------------------------|
-------------------------|------------------------|-------------------------|
-------------------------|------------------------|-----------2----------5--|
-------------------------|---------------------2--|--4--------2----------5--|
--4--2--5--4----2--5--4--|----2--5--4----2--4--0--|--4--2--4--0----2--2--3--|
--2--0--3--2----0--3--2--|----0--3--2----0--2-----|--2--0--2-------0--0-----|



-------------------------|-------------------------|-------------------------|
-------------------------|-------------------------|-------------------------|
----4--5-----------------|-----------2----------5--|----4--5-------------5---|
----4--5-----------------|--4--------2----------5--|----4--5-------------5---|
----2--3--2--2--2--2--2--|--4--2--4--0----2--2--3--|----2--3--2--2--2--2-3---|
----------0--0--0--0--0--|--2--0--2-------0--0-----|----------0--0--0--0-----|



-------------------------|-------------------------|-------------------------|
-------------------------|-------------------------|-------------------------|
-----------2----------5--|----4--5-----------------|-----------2----------5--|
--4--------2----------5--|----4--5-----------------|--4--------2----------5--|
--4--2--4--0----2--2--3--|----2--3--2--2--2--2--2--|--4--2--4--0----2--2--3--|
--2--0--2-------0--0-----|----------0--0--0--0--0--|--2--0--2-------0--0-----|



-------------------------|--------------------------|--------------------------|
-------------------------|--------------------------|--------------------------|
----4--5-----------------|--------------------------|--------------------------|
----4--5-----------------|--------------------------|--------------------------|
----2--3--2--2--2--------|-----------------------3--|-----2--0--1--2-----------|
----------0--0--0--12----|--2--0--2--5--0--1--2-----|--2--------------2--3--0--|



--------------------------|--------------------------|
--------------------------|--------------------------|
--------------------------|--------------------------|
--------------------------|--------------------------|
-----------------------3--|-----2--0--1--2-----------|
--2--0--2--5--0--1--2-----|--2--------------2--3--0--|



--------------------------|--------------------------|
--------------------------|--------------------------|
--------------------------|--------------------------|
--------------------------|--------------------------|
-----------------------3--|-----2--0--1--2-----------|
--2--0--2--5--0--1--2-----|--2--------------2--3--0--|



--------------------------|--------------------------|-------------------------|
--------------------------|--------------------------|-------------------------|
--------------------------|--------------------------|-------------------------|
--------------------------|--------------------------|-------------------------|
-----------------------3--|-----2--0--1--2-----------|--4--2--5--4----2--5--4--|
--2--0--2--5--0--1--2-----|--2--------------2--3--0--|--2--0--3--2----0--3--2--|



------------------------|-------------------------|------------------------|
------------------------|-------------------------|------------------------|
------------------------|-------------------------|------------------------|
------------------------|-------------------------|---------------------2--|
----2--5--4----2--4--5--|--4--2--5--4----2--5--4--|----2--5--4----2--4--0--|
----0--3--2----0--2--3--|--2--0--3--2----0--3--2--|----0--3--2----0--2-----|



-------------------------|------------------------|-------------------------|
-------------------------|------------------------|-------------------------|
-------------------------|------------------------|-------------------------|
-------------------------|------------------------|-------------------------|
--4--2--5--4----2--5--4--|----2--5--4----2--4--5--|--4--2--5--4----2--5--4--|
--2--0--3--2----0--3--2--|----0--3--2----0--2--3--|--2--0--3--2----0--3--2--|



------------------------|-------------------------|------------------------|
------------------------|-------------------------|------------------------|
------------------------|-------------------------|------------------------|
---------------------2--|-------------------------|------------------------|
----2--5--4----2--4--0--|--4--2--5--4----2--5--4--|----2--5--4----2--4--5--|
----0--3--2----0--2-----|--2--0--3--2----0--3--2--|----0--3--2----0--2--3--|



-------------------------|------------------------|-------------------------|
-------------------------|------------------------|-------------------------|
-------------------------|------------------------|-------------------------|
-------------------------|---------------------2--|-------------------------|
--4--2--5--4----2--5--4--|----2--5--4----2--4--0--|--4--2--5--4----2--5--4--|
--2--0--3--2----0--3--2--|----0--3--2----0--2-----|--2--0--3--2----0--3--2--|



------------------------|-------------------------|------------------------|
------------------------|-------------------------|------------------------|
------------------------|-------------------------|------------------------|
------------------------|-------------------------|---------------------2--|
----2--5--4----2--4--5--|--4--2--5--4----2--5--4--|----2--5--4----2--4--0--|
----0--3--2----0--2--3--|--2--0--3--2----0--3--2--|----0--3--2----0--2-----|



-------------------------|-------------------------|-------------------------|
-------------------------|-------------------------|-------------------------|
-----------2----------5--|----4--5-----------------|-----------2----------5--|
--4--------2----------5--|----4--5-----------------|--4--------2----------5--|
--4--2--4--0----2--2--3--|----2--3--2--2--2--2--2--|--4--2--4--0----2--2--3--|
--2--0--2-------0--0-----|----------0--0--0--0--0--|--2--0--2-------0--0-----|



-------------------------|-------------------------|-------------------------|
-------------------------|-------------------------|-------------------------|
----4--5-------------5---|-----------2----------5--|----4--5-----------------|
----4--5-------------5---|--4--------2----------5--|----4--5-----------------|
----2--3--2--2--2--2-3---|--4--2--4--0----2--2--3--|----2--3--2--2--2--2--2--|
----------0--0--0--0-----|--2--0--2-------0--0-----|----------0--0--0--0--0--|



-------------------------|-------------------------|-------------------|
-------------------------|-------------------------|-------------------|
-----------2----------5--|----4--5-----------------|--4----------------|
--4--------2----------5--|----4--5-----------------|--4----------------|
--4--2--4--0----2--2--3--|----2--3--2--2--2--2--2--|--2----------------|
--2--0--2-------0--0-----|----------0--0--0--0--0--|-------------------|



-------------------|-------------------|------------------|-------------------|
-------------------|-------------------|------------------|-------------------|
--------------4----|--2----------------|------------------|--6----------------|
--------------4----|--2----------------|------------------|--6----------------|
--------------2----|--0----------------|------------------|--4----------------|
-------------------|-------------------|------------------|-------------------|



------------------|--------------------|---------------------|
------------------|--------------------|---------------------|
------------------|--------------------|-------9--------7----|
------------------|--4------------4----|--4----9--------7----|
------------------|--4------------4----|--4----7--------5----|
------------------|--2------------2----|--2------------------|



-------------------|--------------------|-------------------|
-------------------|--------------------|-------------------|
--7----------------|----------7----6----|--4----------------|
--7----------------|----------7----6----|--4----------------|
--5----------------|----------5----4----|--2----------------|
-------------------|--------------------|-------------------|



--------------------|-------------------|--------------------|
--------------------|-------------------|--------------------|
----------4---------|-------------------|--------------------|
----------4---------|-------------------|--------------------|
----------2---------|-------------------|--------------------|
---------------5----|--4----------------|--4--------4--------|



-------------------|--------------------|--10--10-10-10-10-10-10-10---------|
-------------------|--------------------|------------------------------7----|
-------------------|--------------------|-----------------------------------|
--5----------------|--5--------5--------|-----------------------------------|
--5----------------|--5--------5--------|-----------------------------------|
--3----------------|--3--------3--------|-----------------------------------|



-----------10--------|--9-----------------|-----------9--------|
--7------------------|---------------7----|--7-----------------|
---------------------|--------------------|--------------------|
---------------------|--------------------|--------------------|
---------------------|--------------------|--------------------|
---------------------|--------------------|--------------------|



--8-8-8-8-8-8-8-8-8-8-8-8-------|---------------------|----------------------|
--------------------------10----|--9------------------|----------------10----|
--------------------------------|-----------11--------|--13------------------|
--------------------------------|---------------------|----------------------|
--------------------------------|---------------------|----------------------|
--------------------------------|---------------------|----------------------|



-------------------|------------------------|----------------------|
--9----------------|------------------------|----------------------|
-------------------|------------------------|----------------------|
-------------------|---------------------2--|----------------------|
-------------------|--4--4--4--2----4----0--|----4----2----4--5----|
-------------------|--2--2--2--0----2-------|----2----0----2--3----|



------------------------|----------------------|------------------------|
------------------------|----------------------|------------------------|
------------------------|----------------------|------------------------|
---------------------2--|----------------------|---------------------2--|
--4--4--4--2----4----0--|----4----2----4--7----|--4--4--4--2----4----0--|
--2--2--2--0----2-------|----2----0----2-------|--2--2--2--0----2-------|



----------------------|------------------------|----------------------|
----------------------|------------------------|----------------------|
----------------------|------------------------|----------------------|
----------------------|---------------------2--|-----------------2----|
----4----2----4--5----|--4--4--4--2----4----0--|----4----2----4--0----|
----2----0----2--3----|--2--2--2--0----2-------|----2----0----2--0----|



--------------------------|--------------------------|
--------------------------|--------------------------|
--------------------------|--------------------------|
-----------------------2--|--2-----------------------|
--4--4--4--2--2--4--4--0--|--0--4--4--2--2--4--5--5--|
--2--2--2--0--0--2--2-----|-----2--2--0--0--2--3--3--|



--------------------------|--------------------------|
--------------------------|--------------------------|
--------------------------|--------------------------|
-----------------------2--|--2-----------------5--5--|
--4--4--4--2--2--4--4--0--|--0--4--4--2--2--4--3--3--|
--2--2--2--0--0--2--2-----|-----2--2--0--0--2--------|



--------------------------|--------------------------|
--------------------------|--------------------------|
--------------------------|--------------------------|
-----------------------2--|--2-----------------------|
--4--4--4--2--2--4--4--0--|--0--4--4--2--2--4--5--5--|
--2--2--2--0--0--2--2-----|-----2--2--0--0--2--3--3--|



--------------------------|--------------------------|
--------------------------|--------------------------|
--------------------------|--------------------------|
-----------------------2--|--2-----------------5--5--|
--4--4--4--2--2--4--4--0--|--0--4--4--2--2--4--3--3--|
--2--2--2--0--0--2--2-----|-----2--2--0--0--2--------|



--------------------------|--------------------------|
--------------------------|--------------------------|
-----------------------2--|--2-----------------------|
--4--4--4--2--2--4--4--2--|--2--4--4--2--2--4--5--5--|
--4--4--4--2--2--4--4--0--|--0--4--4--2--2--4--5--5--|
--2--2--2--0--0--2--2-----|-----2--2--0--0--2--3--3--|



--------------------------|--------------------------|
--------------------------|--------------------------|
-----------------------2--|--2-----------------------|
--4--4--4--2--2--4--4--2--|--2--4--4--2--2--4--2--2--|
--4--4--4--2--2--4--4--0--|--0--4--4--2--2--4--0--0--|
--2--2--2--0--0--2--2-----|-----2--2--0--0--2--0--0--|



--------------------------|--------------------------|
--------------------------|--------------------------|
-----------------------2--|--2-----------------------|
--4--4--4--2--2--4--4--2--|--2--4--4--2--2--4--5--5--|
--4--4--4--2--2--4--4--0--|--0--4--4--2--2--4--5--5--|
--2--2--2--0--0--2--2-----|-----2--2--0--0--2--3--3--|



--------------------------|--------------------------|-----------------------|
--------------------------|--------------------------|--------------------5--|
-----------------------2--|--2-----------------------|--6--6----4----6----4--|
--4--4--4--2--2--4--4--2--|--2--4--4--2--2--4--2--2--|--6--6----4----6----2--|
--4--4--4--2--2--4--4--0--|--0--4--4--2--2--4--0--0--|--4--4----2----4-------|
--2--2--2--0--0--2--2-----|-----2--2--0--0--2--0--0--|-----------------------|



-----------------------|-----------------------|-----------------------|
-----------------3--3--|--------------------5--|-----------------------|
----6----4----6--2--2--|--6--6----4----6----4--|----6----4----6--------|
----6----4----6--0--0--|--6--6----4----6----2--|----6----4----6--5--5--|
----4----2----4--------|--4--4----2----4-------|----4----2----4--5--5--|
-----------------------|-----------------------|-----------------3--3--|



-----------------------|-----------------------|-----------------------|
--------------------5--|-----------------3--3--|--------------------5--|
--6--6----4----6----4--|----6----4----6--2--2--|--6--6----4----6----4--|
--6--6----4----6----2--|----6----4----6--0--0--|--6--6----4----6----2--|
--4--4----2----4-------|----4----2----4--------|--4--4----2----4-------|
-----------------------|-----------------------|-----------------------|



-----------------------|--------------------------|-------------------------|
-----------------------|--------------------------|-------------------------|
----6----4----6--------|-----------------------2--|----------------------4--|
----6----4----6--5--5--|-----4-----2-----4--------|-----4----2-----4--5-----|
----4----2----4--5--5--|--------------------------|-------------------------|
-----------------3--3--|--2-----2-----2-----2-----|--2----------2-----------|



--------------------------|-------------------------|--------------------------|
--------------------------|-------------------------|--------------------------|
-----------------------2--|----------------------4--|-----------------------2--|
-----4-----2-----4--------|-----4----2-----4--5-----|-----4-----2-----4--------|
--------------------------|-------------------------|--------------------------|
--2-----2-----2-----2-----|--2----------2-----------|--2-----2-----2-----2-----|



-------------------------|--------------------------|-------------------------|
-------------------------|--------------------------|-------------------------|
----------------------4--|-----------------------2--|----------------------4--|
-----4----2-----4--5-----|-----4-----2-----4--------|-----4----2-----4--5-----|
-------------------------|--------------------------|-------------------------|
--2----------2-----------|--2-----2-----2-----2-----|--2----------2-----------|



--------------------------------|--------------------------------|
--------------------------------|--------------------------------|
--4--6----6------7--6----6------|--4--6----6------7--6----6------|
--4--6----6------7--6----6------|--4--6----6------7--6----6------|
--2--4----4------5--4----4------|--2--4----4------5--4----4------|
--------------------------------|--------------------------------|



--------------------------------|----------------------------|
--------------------------------|----------------------------|
--------------------------------|--2------------4------------|
--4--4----4------2--4----4------|--2------------4------------|
--4--4----4------2--4----4------|--0------------2------------|
--2--2----2------0--2----2------|----------------------------|



--------------------------------|------------------------------|
--------------------------------|------------------------------|
--4--6----6------7--6----6------|--4--6----6------2------------|
--4--6----6------7--6----6------|--4--6----6------2------------|
--2--4----4------5--4----4------|--2--4----4------0------------|
--------------------------------|------------------------------|



-------------------|----------------------------|---------------------|
-------------------|----------------------------|---------------------|
-------------------|----------------------------|---------------------|
--6----------------|--4------------2------------|--4----4/-x----------|
--6----------------|--4------------2------------|--4----4/-x----------|
--4----------------|--2------------0------------|--2----2/-x----------|



------------------|------------------|------------------|
------------------|------------------|------------------|
------------------|------------------|------------------|
------------------|------------------|------------------|
------------------|------------------|------------------|
------------------|------------------|------------------|



--------------------------------------------------------|
--------------------------------------------------------|
--------------------------------------------------------|
----------------------14p9p7----------------------------|
--16p9p7-14p9p7---9p7--------14p9p7--------------12p9p7-|
----------------7-------------------7h9p7-12p9p7--------|



-----------------------------------------19p14p12-19h26p12-24p19p17-|
--------------------------------19p14p12----------------------------|
------------------------16p11p9-------------------------------------|
---------14p9p7-16p11p9---------------------------------------------|
--14p9p7------------------------------------------------------------|
--------------------------------------------------------------------|



--24p12h26-19p12h14--------------------------------------------|
--------------------24p12h14-----------------------------------|
-----------------------------23p9h11---------------------------|
-------------------------------------9h11----------------------|
------------------------------------------9p7h14t19p7h9-21p7h9-|
---------------------------------------------------------------|



--------------------------------------------------------------|
--------------------------------------------------------------|
--------------------------------------------------------------|
--------------------------------------------------------------|
-------------------------14p12h14-19p7h9-16p7h9-12p7-12p9p7h9-|
--17p7h9-12p7h9-14p12h14--------------------------------------|



-------------------------|------------------------|-------------------------|
-------------------------|------------------------|-------------------------|
-------------------------|------------------------|-------------------------|
-------------------------|------------------------|-------------------------|
-------------------------|------------------------|-------------------------|
--4--2--5--4----2--5--4--|----2--5--4----2--4--5--|--4--2--5--4----2--5--4--|



------------------------|-------------------------|------------------------|
------------------------|-------------------------|------------------------|
------------------------|-------------------------|------------------------|
------------------------|-------------------------|------------------------|
---------------------2--|-------------------------|------------------------|
----2--5--4----2--4-----|--4--2--5--4----2--5--4--|----2--5--4----2--4--5--|



-------------------------|------------------------|--------------------------|
-------------------------|------------------------|--------------------------|
-------------------------|------------------------|--------------------------|
-------------------------|------------------------|--------------------------|
-------------------------|---------------------2--|-----------------------3--|
--4--2--5--4----2--5--4--|----2--5--4----2--4-----|--2--0--2--5--0--1--2-----|



--------------------------|--------------------------|
--------------------------|--------------------------|
--------------------------|--------------------------|
--------------------------|--------------------------|
-----2--0--1--2-----------|-----------------------3--|
--2--------------2--3--0--|--2--0--2--5--0--1--2-----|



--------------------------|--------------------------|
--------------------------|--------------------------|
--------------------------|--------------------------|
--------------------------|--------------------------|
-----2--0--1--2-----------|-----------------------3--|
--2--------------2--3--0--|--2--0--2--5--0--1--2-----|



--------------------------|--------------------------|
--------------------------|--------------------------|
--------------------------|--------------------------|
--------------------------|--------------------------|
-----2--0--1--2-----------|-----------------------3--|
--2--------------2--3--0--|--2--0--2--5--0--1--2-----|



--------------------------|-------------------------------|
--------------------------|--12--10--13--12~-----10-8-7---|
--------------------------|-----------------------------9-|
--------------------------|-------------------------------|
-----2--0--1--2-----------|-------------------------------|
--2--------------2--3--0--|-------------------------------|



------------------------|---------------------------------------|
---------------------x--|---------------------------------------|
--8------9--8~-------x--|---------8-9-8----8--------------------|
-----10--------------x--|--7-9-10-------10---10-9-7-10-9-7------|
------------------------|----------------------------------10-9-|
------------------------|---------------------------------------|



-------------------------------|------------------------------|
-------------------------------|----12~---12~-7----8----10----|
-------------------------------|------------------------------|
-------------------------------|------------------------------|
--10-9-7-10-9-7----7-----------|------------------------------|
----------------11---11~-------|------------------------------|



---------------------------------|----------------------------------|
--4----5----7--------------------|------5-----5-7-4-5-7-8-5-7-4-5---|
-----------------4-5-4---4-5-8-4-|--5-8---5-8---------------------5-|
-----------------------7---------|----------------------------------|
---------------------------------|----------------------------------|
---------------------------------|----------------------------------|



----------------------------5h6-7~---|-----------------------|
--------------7h8p5-7h8p7-8----------|--7------10--------13--|
--8-4-5---4--------------------------|--9b-----12b-------15b-|
--------7---4------------------------|-----------------------|
-------------------------------------|-----------------------|
-------------------------------------|-----------------------|



--------------------|----12h14~----14-12-------------------|
--------------------|----12--------------14-13-16-14-13-14-|
------15~-----------|--------------------------------------|
--------------------|--------------------------------------|
--------------------|--------------------------------------|
--------------------|--------------------------------------|



--------------------------------------------|
--13-12----13-12----------12----------------|
--------14-------14-11-------14-11----14~---|
-----------------------14----------14-------|
--------------------------------------------|
--------------------------------------------|



--------14----17--19--20--21--19--22~----17h19h20-|
--------------------------------------19----------|
--------------------------------------------------|
--------------------------------------------------|
--16----------------------------------------------|
--------------------------------------------------|



--21-20p19p17----17-19-20p19p17---------------|
--------------19----------------19~--------x--|
-------------------------------------------x--|
-------------------------------------------x--|
----------------------------------------------|
----------------------------------------------|



-----------------------------------------14----|
---------------------------------10---------13-|
---------------9-11-9----11-9-------11-9-------|
-------9-10-11--------11------11---------------|
--9-12-----------------------------------------|
-----------------------------------------------|



--------------------9---------------------------|--------------------|---|---|
--12-11-10-11-12-13---12-13-12-10---------------|--12~---------------|---|---|
----------------------------------12-11-9-11-12-|--------------------|---|---|
------------------------------------------------|--------------------|---|---|
------------------------------------------------|--------------------|---|---|
------------------------------------------------|--------------------|---|---|



---|---|---|---|---|---|---|---|---|---|---|---|---|
---|---|---|---|---|---|---|---|---|---|---|---|---|
---|---|---|---|---|---|---|---|---|---|---|---|---|
---|---|---|---|---|---|---|---|---|---|---|---|---|
---|---|---|---|---|---|---|---|---|---|---|---|---|
---|---|---|---|---|---|---|---|---|---|---|---|---|



--10--10-10-10-10-10-10-10---------|-----------10--------|--9-----------------|
------------------------------7----|--7------------------|---------------7----|
-----------------------------------|---------------------|--------------------|
-----------------------------------|---------------------|--------------------|
-----------------------------------|---------------------|--------------------|
-----------------------------------|---------------------|--------------------|



-----------9--------|--8-8-8-8-8-8-8-8-8-8-8-8-------|---------------------|
--7-----------------|--------------------------10----|--9------------------|
--------------------|--------------------------------|-----------11--------|
--------------------|--------------------------------|---------------------|
--------------------|--------------------------------|---------------------|
--------------------|--------------------------------|---------------------|



----------------------|-------------------|--10--10-10-10-10-10-10-10---------|
----------------10----|--9----------------|------------------------------7----|
--13------------------|-------------------|-----------------------------------|
----------------------|-------------------|-----------------------------------|
----------------------|-------------------|-----------------------------------|
----------------------|-------------------|-----------------------------------|



-----------10--------|--9-----------------|-----------9--------|
--7------------------|---------------7----|--7-----------------|
---------------------|--------------------|--------------------|
---------------------|--------------------|--------------------|
---------------------|--------------------|--------------------|
---------------------|--------------------|--------------------|



--8-8-8-8-8-8-8-8-8-8-8-8-------|---------------------|--------------------|
--------------------------10----|--9------------------|--12b---------------|
--------------------------------|-----------11--------|--------------------|
--------------------------------|---------------------|--------------------|
--------------------------------|---------------------|--------------------|
--------------------------------|---------------------|--------------------|



---------------------|--------------------------|--------------------------|
------------14/---x--|--------------------------|--------------------------|
---------------------|--------------------------|--------------------------|
---------------------|--------------------------|--------------------------|
---------------------|-----------------------3--|-----2--0--1--2-----------|
---------------------|--2--0--2--5--0--1--2-----|--2--------------2--3--0--|



--------------------------|--------------------------|
--------------------------|--------------------------|
--------------------------|--------------------------|
--------------------------|--------------------------|
-----------------------3--|-----2--0--1--2-----------|
--2--0--2--5--0--1--2-----|--2--------------2--3--0--|



--------------------------|--------------------------|
--------------------------|--------------------------|
--------------------------|--------------------------|
--------------------------|--------------------------|
-----------------------3--|-----2--0--1--2-----------|
--2--0--2--5--0--1--2-----|--2--------------2--3--0--|



--------------------------|--------------------------|
--------------------------|--------------------------|
--------------------------|--------------------------|
--------------------------|--------------------------|
-----------------------3--|-----2--0--1--2-----------|
--2--0--2--5--0--1--2-----|--2--------------2--3--0--|



--------------------------|--------------------------|
--------------------------|--------------------------|
--------------------------|--------------------------|
-----------------------4--|-----2--------------------|
-----------4--------------|--------0--1--2-----------|
--2--0--2-----0--1--2-----|--2--------------0--3--0--|



--------------------------|--------------------------|
--------------------------|--------------------------|
--------------------------|--------------------------|
-----------------------4--|-----2--------------------|
-----------4--------------|--------0--1--2-----------|
--2--0--2-----0--1--2-----|--2--------------0--3--0--|



--------------------------|--------------------------|
--------------------------|--------------------------|
--------------------------|--------------------------|
-----------------------4--|-----2--------------------|
-----------4--------------|--------0--1--2-----------|
--2--0--2-----0--1--2-----|--2--------------0--3--0--|



--------------------------|--------------------------|-------------------|
--------------------------|--------------------------|-------------------|
--------------------------|--------------------------|-------------------|
-----------------------4--|-----2--------------------|--4----------------|
-----------4--------------|--------0--1--2-----------|--4----------------|
--2--0--2-----0--1--2-----|--2--------------0--3--0--|--2----------------|



------------------|------------------|------------------|------------------|
------------------|------------------|------------------|------------------|
------------------|------------------|------------------|------------------|
------------------|------------------|------------------|------------------|
------------------|------------------|------------------|------------------|
------------------|------------------|------------------|------------------|



------------------|------------------|------------------|------------------|
------------------|------------------|------------------|------------------|
------------------|------------------|------------------|------------------|
------------------|------------------|------------------|------------------|
------------------|------------------|------------------|------------------|
------------------|------------------|------------------|------------------|



------------------||
------------------||
------------------||
------------------||
------------------||


Important: The song above is NOT stored on the Chordie server. The original song is hosted at www.xguitar.com. Chordie works as a search engine and provides on-the-fly formatting. Chordie does not index songs against artists'/composers' will. To remove this song please click here.

This song is displayed as text-only. Transposing and tuning is only available for chordpro-songs.

Login - add to songbook

Rating click stars to rate

Layout
Accuracy

SHARE PAGE  




You need to log in to post comments